Song name
# A B C D E F G H I J K L M N O P Q R S T U V W X Y Z

Towers Of London - City Of Hell tab

#----------------------------------PLEASE NOTE---------------------------------#
#This file is the author's own work and represents their interpretation of the #
#song. You may only use this file for private study, scholarship, or research. #
#------------------------------------------------------------------------------##

                                  CITY OF HELL
                         As recorded by Towers of London

transcribed by andrew88
ridethelightning3@hotmail.com


          B5                   E5                   A5                  
      7 9 9 x x x          x 7 9 9 x x          5 7 7 x x x

       B5(type 2)           A5(type 2)              G5 
      7 9 x x x x          5 7 x x x x          3 5 5 x x x

          D5
      x 5 7 7 x x

Gtr I (E A D G B E)
Gtr II (E A D G B E)

   Intro
   4/4
    Gtr I
||--------------------------------|-------------------------------||
||o-------------------------------|------------------------------o||
||--9b10r9-7----7-7-9b10r9-7----7-|-9b10r9-7----7--9b10r9-7----7--||
||--9b10r9-7-9--7-7-9b10r9-7-9--7-|-9b10r9-7-9--7--9b10r9-7-9--7--||
||o----------9---------------9----|----------9--------------9----o||
||--------------------------------|-------------------------------||

Gtr I play tabbed part
Gtr II play rhythm slashes

   Pre-Verse
    B5             E5   A5         B5     E5       B5
    |  | | |   | | | |  |  | | |   |  | | |    |   |  |  |  |
    /  / / /   / / / /  /  / / /   /  / / /    /   /  /  /  /

||-------------------------------|--------------------------------||
||o------------------------------|-------------------------------o||
||-----------------9-9-----------|------7-9b10r9-7----------------||
||--9--9-9-9-9-9-9-9-9--7--7-7-7-|-9--9-7-9b10r9-7-7--7--7--7-----||
||o-9--9-9-9-9-9-9-7-7--7--7-7-7-|-9--9------------7--7--7--7----o||
||--7--7-7-7-7-7-7------5--5-5-5-|-7--7---------------------------||


   Verse
    B5 B5(type 2)  E5   A5         B5 B5(type 2)  E5       B5
    |  | | | | | | | |  |  | | |   |  | | | | | | |    |   |   | |
    /  / / / / / / / /  /  / / /   /  / / / / / / /    /   /   / /

       PM--------|                    PM------|
||-------------------------------|-----------------------------------||
||o------------------------------|----------------------------------o||
||-----------------9-9-----------|--------------7-9b10r9-7-----------||
||--9--------------9-9--7--7-7-7-|-9------------7-9b10r9-7-9---9-9---||
||o-9--9-9-9-9-9-9-7-7--7--7-7-7-|-9--9-9-9-9-9------------9---9-9--o||
||--7--7-7-7-7-7-7------5--5-5-5-|-7--7-7-7-7-7----------------------||


   Pre-Chorus
    A5 A5(type 2)                    E5       B5    E5       B5
    |  | | | | | | | | | | | | | |   |    |   |     |    |   |
    /  / / / / / / / / / / / / / /   /    /   /     /    /   /

       PM----------------|
||---------------------------------|-------------------------------||
||o--------------------------------|------------------------------o||
||---------------------------------|-9b10r9-7----7--9b10r9-7-------||
||--9------------------------------|-9b10r9-7-9--7--9b10r9-7-9-----||
||o-9--9-9-9-9-9-9-9-9-9-9-9-9-9-9-|----------9--------------9----o||
||--7--7-7-7-7-7-7-7-7-7-7-7-7-7-7-|-------------------------------||

  Guitar fill
  (Both Gtrs)

|------------|
|------------|
|------------|
|-7--7--7----|
|-7--7--7----|
|-5--5--5----|


   Chorus
    G5           D5   A5       G5           D5   A5
    |  |  | | |  | |  |  | |   |  |  | | |  | |  |  | |
    /  /  / / /  / /  /  / /   /  /  / / /  / /  /  / /

||---------------------------|-----------------------------|
||o--------------------------|-----------------------------|
||---------------7-7---------|--------------7-7------------|
||--5--5--5-5-5--7-7--7--7-7-|-5--5--5-5-5--7-7--7--7-7----|
||o-5--5--5-5-5--5-5--7--7-7-|-5--5--5-5-5--5-5--7--7-7----|
||--3--3--3-3-3-------5--5-5-|-3--3--3-3-3-------5--5-5----|


  G5           D5   A5       E5       B5     E5       B5
  |  |  | | |  | |  |  | |   |    |   |      |    |   |
  /  /  / / /  / /  /  / /   /    /   /      /    /   /

|--------------------------|--------------------------------||
|--------------------------|-------------------------------o||
|--------------7-7---------|-9b10r9-7-----7--9b10r9-7-------||
|-5--5--5-5-5--7-7--7--7-7-|-9b10r9-7-9---7--9b10r9-7-9-----||
|-5--5--5-5-5--5-5--7--7-7-|----------9---------------9----o||
|-3--3--3-3-3-------5--5-5-|--------------------------------||

  Guitar Solo

|--------------------------------------------------|
|-10b12=====10b12r10-7-10b12====10b12===10b12r10-7-|
|--------------------------------------------------|
|--------------------------------------------------|
|--------------------------------------------------|
|--------------------------------------------------|


  ~~~~~~~~~~~~~
|-------------------------------------------|
|-------------------------------------------|
|-9b11===9b11===9b11r9p7---7---------7-9----|
|------------------------9-----9-7-9--------|
|-------------------------------------------|
|-------------------------------------------|


|-------7---------7------7-10p7----7-10p7----7-10p7----7-10p7----7-|
|-------7-------7---------------10--------10--------10--------10---|
|-9b11-----9b11-----9b11-------------------------------------------|
|------------------------------------------------------------------|
|------------------------------------------------------------------|
|------------------------------------------------------------------|


                             ~~~~~~      ~~~
|-10p7----7-10p7----7--7-7---------------------|
|------10--------10---------10b12====10-10r----|
|----------------------------------------------|
|----------------------------------------------|
|----------------------------------------------|
|----------------------------------------------|


|--------------------------------|
|--------------------------------|
|-7-9-9b11========9r-7-9-7tr9----|
|--------------------------------|
|--------------------------------|
|--------------------------------|


Tablature Legend
----------------
 h   - hammer-on
 p   - pull-off
 b   - bend
 pb  - pre-bend
 r   - bend release (if no number after the r, then release immediately)
 /\  - slide into or out of (from/to "nowhere")
 s   - legato slide
 S   - shift slide
  - natural harmonic
[n]  - artificial harmonic
n(n) - tapped harmonic
 ~   - vibrato
 tr  - trill
 T   - tap
 TP  - trem. picking
 PM  - palm muting
\n/  - tremolo bar dip; n = amount to dip
 \n  - tremolo bar down
 n/  - tremolo bar up
/n\  - tremolo bar inverted dip
 =   - hold bend; also acts as connecting device for hammers/pulls
 <>  - volume swell (louder/softer)
 x   - on rhythm slash represents muted slash
 o   - on rhythm slash represents single note slash

Misc Legend
-----------
 |  - bar
||  - double bar
||o - repeat start
o|| - repeat end
*|  - double bar (ending)
 :  - bar (freetime)
 $  - Segno
 &  - Coda
Tempo markers -  = BPM(8/16=s8/s16), where s8 = swing 8ths, s16 = swing 16ths


***************************************************************************************
* Generated using Power Tab Editor by Brad Larsen - http://powertab.guitarnetwork.org *
***************************************************************************************
Tap to rate this tab
 
# A B C D E F G H I J K L M N O P Q R S T U V W X Y Z