Song name
# A B C D E F G H I J K L M N O P Q R S T U V W X Y Z

Towers Of London - On A Noose tab

Artist: Towers Of London
Song: On A Noose
Album: Blood, Sweat & Towers

Towers Of London's first single off of the forthcoming album "Blood, Sweat & Towers".

Tuning: Standard (EADGBe)

Intro

"Louder, I said Louder!"
E|--------------------|
A|--77777777----------|
D|--55555555----------|
G|--55555555----------|
B|--------------------|
e|--------------------|

Verse part 1

E|------5-------------|
A|-555557-------------|
D|-777777-------------|
G|-77777--------------|
B|--------------------|
e|--------------------|

Verse part 1
"I'm on a noose . . ."
E|------5-------------|
A|-555557-------------| (x6)
D|-777777-------------|
G|-77777--------------|
B|--------------------|
e|--------------------|

Verse part 2
"On a run this is my creator"
E|------5-3~----------|
A|-555557-5~----------| (x2)
D|-777777-5~----------|
G|-77777--------------|
B|--------------------|
e|--------------------|

Chorus
"You see me, you see me, you see me now"
E|-333-111-333-111-333-|
A|-555-333-555-333-555-|
D|-555-333-555-333-555-|
G|---------------------|
B|---------------------|
e|---------------------|

End On
E|--5~--
A|--7~--
D|--7~--
G|------|
B|------|
e|------|

Structure

Intro (x1)
Verse Part 1 (x4)
(lyrics start)
Verse Part 1 (x6)
Verse Part 2 (x1)
Verse Part 1 (x1)
Verse Part 2 (x1)
Verse Part 1 (x11)
Verse Part 2 (x1)
Verse Part 1 (x1)
Verse Part 2 (x1)
Chorus (x1)
Verse Part 1 (x11)
Verse Part 2 (x1)
Verse Part 1 (x1)
Verse Part 2 (x1)
Chorus (x1)
(bass only)
Verse Part 1 (x4)
Verse Part 2 (x1)
Verse Part 1 (x1)
Verse Part 2 (x1)
Chorus (x1)
Verse Part 1 (x8)
End On

~ = let ring
Tap to rate this tab
 
# A B C D E F G H I J K L M N O P Q R S T U V W X Y Z