Song name
# A B C D E F G H I J K L M N O P Q R S T U V W X Y Z

Towers Of London - Air Guitar tab

intro guitar 1
e|-------------------------|
B|-------------------------|
G|-33333333----------------|
D|-33333333----------------|
A|-55555555----------------|x12
E|-------------------------|
   ........

guitar 2
e|---------------   e|---------------------------|
B|---------------   B|---------------9b-9b-9b----|
G|-9-9-7-6-6-7---   G|-9-9-7-6-6-7---------------|
D|---------------x3 D|---------------------------|
A|---------------   A|---------------------------|
E|---------------   E|---------------------------|


guitar 1 and 2
E|----------          |-------------------|
B|----------          |-------------------|
G|-10-55555-          |-1010101010--77777-|
D|-10-55555- x3       |-1010101010--77777-| x1
A|-8--33333-          |-8-8-8-8-8---55555-|
E|----------          |-------------------|

E|----------          |-------------------|
B|----------          |-------------------|
G|-10-55555-          |-1010101010--77777-|
D|-10-55555- x3       |-1010101010--77777-| x1
A|-8--33333-          |-8-8-8-8-8---55555-|
E|----------          |-------------------|

e|---------------------------------------------------------------------|
B|---------------------------------------------------------------------|
G|-555555555555-/10--555555555555-/10-----5555555555555555-------------|
D|-555555555555-/10--555555555555-/10-----5555555555555555-2-2-2-------|
A|-333333333333-/8---333333333333-/8------3333333333333333-1-1-1-2-2-2-|
E|---------------------------------------------------------------1-1-1-|
   ............      ............         ................


e|---------------------------------------------------------------------------|
B|---------------------------------------------------------------------------|
G|-555555555555-/10--555555555555-/10-----5555555555555555-101010101010------|
D|-555555555555-/10--555555555555-/10-----5555555555555555-101010101010------|
A|-333333333333-/8---333333333333-/8------3333333333333333-8 8 8 8 8 8 ------|
E|---------------------------------------------------------------------------|
   ............      ............         ................

-----------------------------------------------------------------------|
-----------------------------------------------------------------------|
-777777-5-55-44-2-222-101010101010-777777-5-55-44-2-222-101010101010-7-|
-777777-5-55-44-2-222-101010101010-777777-5-55-44-2-222-101010101010-7-|
-555555-3-33-22-0-000- 8 8 8 8 8 8-555555-3-33-22-0-000-8 8 8 8 8 8 -5-|
-----------------------------------------------------------------------|

------------------------------------------------------------------|
------------------------------------------------------------------|
-10-555555555555-10-555555555555-10--5555555555555555-------------|
-10-555555555555-10-555555555555-10--5555555555555555-2-2-2-------|
-8--333333333333-8--333333333333-8---3333333333333333-1-1-1-2-2-2-|
------------------------------------------------------------1-1-1-|
    ............    ............     ................

e|-----------------|
B|-----------------|
G|-5/-10-5/-10-5---|
D|-5/-10-5/-10-5---|
A|-3/-8--3/-8--3p--|
E|--------------p--|

e|--------------------------------------|
B|--------------------------------------|
G|-101010101010-777777-5-55-44-2-222----|
D|-101010101010-777777-5-55-44-2-222----|x2
A|-8 8 8 8 8 8 -555555-3-33-22-0-000----|
E|--------------------------------------|


e|-----------------------------------------------------------------|
B|-----------------------------------------------------------------|
G|-101010101010-777777-1212121212121212-999999---------------------|
D|-101010101010-777777-1212121212121212-999999---------------------|
A|-8 8 8 8 8 8--555555-1010101010101010-777777---------------------|
E|-----------------------------------------------------------------|
e|-----------------------------------------------------------------|
B|-----------------------------------------------------------------|
G|-101010101010-777777-5-55-44-2-222----101010101010-121212121212--|
D|-101010101010-777777-5-55-44-2-222----101010101010-121212121212--|
A|-8 8 8 8 8 8 -555555-3-33-22-0-000----8 8 8 8 8 8 -101010101010--|
E|-----------------------------------------------------------------|


e|----------|
B|----------|
G|----------|
D|-3/555555-x7
A|-1/333333-
E|----------


e|----------------|
B|----------------|
G|----------------|
D|----------------|
A|-55555555-0-0-0-|
E|-33333333-0-0-0-|

e|--------------------|
B|--------------------|
G|-555555555555555-10-|
D|-555555555555555-10-|x3
A|-333333333333333-8 -|
E|--------------------|

e|------------------|
B|------------------|
G|-5555555----------|
D|-5555555-55555555-|
A|-3333333-55555555-|
E|---------33333333-|


e|---------------------------------------------|
B|---------------------------------------------|
G|-101010101010-777777-1212121212121212-999999-|
D|-101010101010-777777-1212121212121212-999999-|
A|-8 8 8 8 8 8--555555-1010101010101010-777777-|
E|---------------------------------------------|

e|------------------------------------|
B|------------------------------------|
G|-101010101010-777777-5-55-44-2-222--|
D|-101010101010-777777-5-55-44-2-222--|x3
A|-8 8 8 8 8 8 -555555-3-33-22-0-000--|
E|------------------------------------|

----------------|
----------------|
-101010101010-7-|
-101010101010-7-|
-8 8 8 8 8 8 -5-|
----------------|


outro
E|----------|
B|----------|
G|-10-55555-|
D|-10-55555-| x3
A|-8--33333-|
E|----------|

ive dun this all by ear ant it took a lil while but hope you all like it :)
if any1 wants to join me by making more towers of london tabs my addy is
            thanks :)
Tap to rate this tab
 
# A B C D E F G H I J K L M N O P Q R S T U V W X Y Z