Song name
# A B C D E F G H I J K L M N O P Q R S T U V W X Y Z

Towers Of London - Kill The Pop Scene tab

Artist: Towers Of London
Song: Kill The Pop Scene
Album: Blood Sweat & Towers
Tabbed By: Aaron Haris

. = Palm Mute
^ = Bend String
> = Let Ring
r = Rollover (Hold Bend)
t = Tremolo pick
(notes) = Wah
~ = Vibrato
\ = Slide Down
/ = Slide up
x = Dead Note
h = Hammer On
p = Pull Off


Standard Tuning (EADGBE)


Intro


Guitar 1
E--------------------------------------------|
B--------------------------------------------|    
G-14\11-11-11-11-11-11-111111-14\11-11-11-11-|    
D----x--x--x--x--x--x--x-x-x--x--x--x--x--x--|
A-12\9--9--9--9--9--9--9-9-9--12\9--9--9--9--|
E--------------------------------------------|

E-------------------------|
B-14-14-14-14-13-13-13-13-|    
G-x--x--x--x--x--x--x--x--|    
D-11-11-11-11-10-10-10-10-|
A-------------------------|
E-------------------------|  \
                              \    
Guitar 2                       \  Played together  
E-----------------|            /
B-----------------|           / 
G-----------------|          / 
D-7-7-7-7-6-6-6-6-|
A-7-7-7-7-6-6-6-6-|
E-5-5-5-5-4-4-4-4-|


Chorus 

Guitar 1
E-----------------------------------------------------------------|
B-----------------------------------------------------------------|    
G-----------------4-4-4-4-4-4-4-4-----------------6-6-6-6-6-6-6-6-|    
D-4-4-4-4-4-4-4-4-4-4-4-4-4-4-4-4-7-7-7-7-7-7-7-7-6-6-6-6-6-6-6-6-|
A-4-4-4-4-4-4-4-4-2-2-2-2-2-2-2-2-7-7-7-7-7-7-7-7-4-4-4-4-4-4-4-4-|
E-2-2-2-2-2-2-2-2-----------------5-5-5-5-5-5-5-5-----------------|

E-----------------------------------------------------------------|
B-----------------------------------------------------------------|    
G-----------------4-4-4-4-4-4-4-4---------------------------------|    
D-4-4-4-4-4-4-4-4-4-4-4-4-4-4-4-4-7-7-7-7-7-7-7-7-6-6-6-6-5-5-5-5-|
A-4-4-4-4-4-4-4-4-2-2-2-2-2-2-2-2-7-7-7-7-7-7-7-7-6-6-6-6-5-5-5-5-|
E-2-2-2-2-2-2-2-2-----------------5-5-5-5-5-5-5-5-4-4-4-4-3-3-3-3-|

Guitar 2   
E------------------------------------|
B-^16^16^16^16^16^16^16^16--^15--^14-|    
G------------------------------------|    (Comes in at end of chorus) 
D------------------------------------|  
A------------------------------------|
E------------------------------------|


Verse 1

Guitar 1
  . . . . . . . . . . . . . . . .
E-----------------------------------------------------------------|
B-----------------------------------------------------------------|   x3 
G-----------------4-4-4-4-4-4-4-4-----------------6-6-6-6-6-6-6-6-|    
D-4-4-4-4-4-4-4-4-4-4-4-4-4-4-4-4-7-7-7-7-7-7-7-7-6-6-6-6-6-6-6-6-|
A-4-4-4-4-4-4-4-4-2-2-2-2-2-2-2-2-7-7-7-7-7-7-7-7-4-4-4-4-4-4-4-4-|
E-2-2-2-2-2-2-2-2-----------------5-5-5-5-5-5-5-5-----------------|
  . . . . . . . . . . . . . . . . 

  . . . . . . . . . . . . . . . .
E-------------------------------------------------|
B-------------------------------------------------|   
G-----------------4-4-4-4-4-4-4-4-----------------|    
D-4-4-4-4-4-4-4-4-4-4-4-4-4-4-4-4-7-7-7-7-7-7-7-7-|
A-4-4-4-4-4-4-4-4-2-2-2-2-2-2-2-2-7-7-7-7-7-7-7-7-|
E-2-2-2-2-2-2-2-2-----------------5-5-5-5-5-5-5-5-|
  . . . . . . . . . . . . . . . . 

E----------|
B----------|   x4 
G-6/7\6/7\-|    
D-6/7\6/7\-|
A-4/5\4/5\-|
E----------|


Pre Chorus 1

Guitar 1
E-------------------------------------------|
B-------------------------------------------|    
G-7>----4>----9>--9\7-6>----7>---7-9-9>-----|    
D-7>----4>----9>--9\7-6>----7>---7-9-9>-----|
A-5>----2>----7>--7\5-4>----5>---5-7-7>-----|
E-------------------------------------------|

E---------------|
B---------------|    
G---------------|    
D-4-4--4-4--4-4-|
A-4-4--4-4--4-4-|
E-2-2--2-2--2-2-|


>>>Repeat Chorus 1


Post Chorus

E------------------|
B------------------|    
G------------------|    
D-4-4-444--4-4-444-|
A-4-4-444--4-4-444-|
E-2-2-222--2-2-222-|


Verse 2

Guitar 1
  . . . . . . . . . . . . . . . .
E-----------------------------------------------------------------|
B-----------------------------------------------------------------|    
G-----------------4-4-4-4-4-4-4-4-----------------6-6-6-6-6-6-6-6-|    
D-4-4-4-4-4-4-4-4-4-4-4-4-4-4-4-4-7-7-7-7-7-7-7-7-6-6-6-6-6-6-6-6-|
A-4-4-4-4-4-4-4-4-2-2-2-2-2-2-2-2-7-7-7-7-7-7-7-7-4-4-4-4-4-4-4-4-|
E-2-2-2-2-2-2-2-2-----------------5-5-5-5-5-5-5-5-----------------|
  . . . . . . . . . . . . . . . . 

  . . . . . . . . . . . . . . . .
E-------------------------------------------------|
B-------------------------------------------------|   
G-----------------4-4-4-4-4-4-4-4-----------------|    
D-4-4-4-4-4-4-4-4-4-4-4-4-4-4-4-4-7-7-7-7-7-7-7-7-|
A-4-4-4-4-4-4-4-4-2-2-2-2-2-2-2-2-7-7-7-7-7-7-7-7-|
E-2-2-2-2-2-2-2-2-----------------5-5-5-5-5-5-5-5-|
  . . . . . . . . . . . . . . . . 

E----------|
B----------|   x4 
G----------|    
D-6/7\6/7\-|
A-6/7\6/7\-|
E-4/5\4/5\-|


Pre Chorus 2

Guitar 1
E-------------------------------------------|
B-------------------------------------------|    
G-7>----4>----9>--9\7-6>----7>---7-9-9>-----|    
D-7>----4>----9>--9\7-6>----7>---7-9-9>-----|
A-5>----2>----7>--7\5-4>----5>---5-7-7>-----|
E-------------------------------------------|

E---------------|
B---------------|    
G---------------|    
D-4-4--4-4--4-4-|
A-4-4--4-4--4-4-|
E-2-2--2-2--2-2-|

E-----------------------------------|
B-----------------------------------|    
G-7>----4>----9>--9\7-6>----7>--9>--|    
D-7>----4>----9>--9\7-6>----7>--9>--|
A-5>----2>----7>--7\5-4>----5>--7>--|
E-----------------------------------|

E---------------|
B---------------|    
G---------------|    
D-4-4--4-4--4-4-|
A-4-4--4-4--4-4-|
E-2-2--2-2--2-2-|


Chorus 2

Guitar 1
E-----------------------------------------------------------------|
B-----------------------------------------------------------------|    x2
G-----------------4-4-4-4-4-4-4-4-----------------6-6-6-6-6-6-6-6-|   
D-4-4-4-4-4-4-4-4-4-4-4-4-4-4-4-4-7-7-7-7-7-7-7-7-6-6-6-6-6-6-6-6-|
A-4-4-4-4-4-4-4-4-2-2-2-2-2-2-2-2-7-7-7-7-7-7-7-7-4-4-4-4-4-4-4-4-|
E-2-2-2-2-2-2-2-2-----------------5-5-5-5-5-5-5-5-----------------|

E-----------------------------------------------------------------|
B-----------------------------------------------------------------|    
G-----------------4-4-4-4-4-4-4-4---------------------------------|    
D-4-4-4-4-4-4-4-4-4-4-4-4-4-4-4-4-7-7-7-7-7-7-7-7-6-6-6-6-5-5-5-5-|
A-4-4-4-4-4-4-4-4-2-2-2-2-2-2-2-2-7-7-7-7-7-7-7-7-6-6-6-6-5-5-5-5-|
E-2-2-2-2-2-2-2-2-----------------5-5-5-5-5-5-5-5-4-4-4-4-3-3-3-3-|


Guitar 2   
E------------------------------------|
B-^16^16^16^16^16^16^16^16--^15--^14-|    
G------------------------------------|    (Comes in at end of chorus) 
D------------------------------------|  
A------------------------------------|
E------------------------------------|


Solo

Guitar 1
E---------------------------------------|
B-^17----r17-17-15----------------------|    
G------------------18-16-14--18p16\15---|    
D------------------------------------16-|  
A---------------------------------------|
E---------------------------------------|

E------------------------------------|
B------------------------------------|    
G------------------------------------|     
D------------------------------------|  
A-(10-11-12-13-^15-^15-^15-15p13\12)-|
E------------------------------------|

E---------------------------------------------------------------------|
B--------------------------------------------------------------21-19~-|    
G---------------------------------15-17-^17-15h17-15~-15-17-19--------|    
D---------------------------------------------------------------------|  
A-7-9p7h9p7h9p7h9p7h9p7h9p7h9p7h9-------------------------------------|
E---------------------------------------------------------------------|

E-------------------------------------------------------|
B---19-19---19-19---19-19----^17--^19--^21----t19--t\5~-|    
G-17------17------17------------------------------------|    
D-------------------------------------------------------|  
A-------------------------------------------------------|
E-------------------------------------------------------|

Guitar 2 (Backing)
E-----------------------------------------------------------------|
B-----------------------------------------------------------------|    x2
G-----------------4-4-4-4-4-4-4-4-----------------6-6-6-6-6-6-6-6-|   
D-4-4-4-4-4-4-4-4-4-4-4-4-4-4-4-4-7-7-7-7-7-7-7-7-6-6-6-6-6-6-6-6-|
A-4-4-4-4-4-4-4-4-2-2-2-2-2-2-2-2-7-7-7-7-7-7-7-7-4-4-4-4-4-4-4-4-|
E-2-2-2-2-2-2-2-2-----------------5-5-5-5-5-5-5-5-----------------|

E-------------------------------------------------|
B-------------------------------------------------|    
G-7-7-7-7-7-7-7-7-9-9-9-9-9-9-9-9-9-9-9-9-9-9-9-9-|   
D-7-7-7-7-7-7-7-7-9-9-9-9-9-9-9-9-9-9-9-9-9-9-9-9-|
A-5-5-5-5-5-5-5-5-7-7-7-7-7-7-7-7-7-7-7-7-7-7-7-7-|
E-------------------------------------------------|

E------------------|
B------------------|  x2    
G------------------|    
D-4-4-444--4-4-444-|
A-4-4-444--4-4-444-|
E-2-2-222--2-2-222-|


Fianl Chorus

Guitar 2 (comes in first)
E-----------------------------------------------------------------|
B-----------------------------------------------------------------|    x4
G-----------------4-4-4-4-4-4-4-4-----------------6-6-6-6-6-6-6-6-|   
D-4-4-4-4-4-4-4-4-4-4-4-4-4-4-4-4-7-7-7-7-7-7-7-7-6-6-6-6-6-6-6-6-|
A-4-4-4-4-4-4-4-4-2-2-2-2-2-2-2-2-7-7-7-7-7-7-7-7-4-4-4-4-4-4-4-4-|
E-2-2-2-2-2-2-2-2-----------------5-5-5-5-5-5-5-5-----------------|

E------------------------------------------------------------|
B------------------------------------------------------------|    
G------------------------------------------------------------|   
D-4-4-4-4-4-4-4-2-2-2-2-2-2-2-2-2-8-8-8-8-8-8-8-8-7>--6>--4>-|
A-4-4-4-4-4-4-4-2-2-2-2-2-2-2-2-2-8-8-8-8-8-8-8-8-7>--6>--4>-|
E-2-2-2-2-2-2-2-0-0-0-0-0-0-0-0-0-6-6-6-6-6-6-6-6-5>--4>--2>-|

Guitar 1 - solo (Outro)
E---------------------------------------------------|
B-^19--^19-^19-^19-^19-^19-^19-^19-^19-^19-^19-^19~-|    
G---------------------------------------------------|    
D---------------------------------------------------|  
A---------------------------------------------------|
E---------------------------------------------------|

E-------------------------------------------------------------|
B-----------------------17------------------------------------|    
G-17h19\15----15-----15----15\14------------------------------|    
D----------16----16-------------16----------------------------|  
A------------------------------------(10/12h15p12-10~)--------|
E-------------------------------------------------------------|

E-----------10h12p10-15h18p15-10h12p10-15h18p15-10h12p10-15h18p15-|
B-----------------------------------------------------------------|    
G--11--11---------------------------------------------------------|    
D-----------------------------------------------------------------|  
A-9---9-----------------------------------------------------------|
E-----------------------------------------------------------------|


E-10h12p10-15h18p15-10h12p10-15h18p15-|
B-------------------------------------|    
G-------------------------------------|    
D-------------------------------------|  
A-------------------------------------|
E-------------------------------------|

E-t18-t17-t15-13-14~----------------------------------|
B---------------------12/14-14~----------12-10~-------|    
G------------------------------11h12p11-----------11\-|    
D-----------------------------------------------------|  
A-----------------------------------------------------|
E-----------------------------------------------------|
Tap to rate this tab
# A B C D E F G H I J K L M N O P Q R S T U V W X Y Z