Guitaretab - guitar tabs
Song name
# A B C D E F G H I J K L M N O P Q R S T U V W X Y Z

Towers Of London - Beaujolais tab

-------------------------------------------------------------------------------
			     beaujolais - Towers of london
-------------------------------------------------------------------------------
Tabbed by: BenC
Email:fifty_p_prostitute@hotmail.co.uk

Tuning:

e|---------------------------------------------------------------------------|
B|------------------------------16^------------------------------------------|
G|-9-7----9-7-5--9-7----9-7-5------------------------------------------------|
D|-9-7-7--9-7-5--9-7-9--9-7-5------------------------------------------------|
A|-7-5-7--7-5-3--7-5-9--7-5-3------------------------------------------------|
E|-----5-------------7-------------------------------------------------------|
[ Tab from: http://www.guitaretab.com/t/towers-of-london/86322.html ]
^Intro/chorus^ work out the strumming yourself :P
e|---------------------------------------------------------------------------|
B|-----------------------------------------------------16^-------------------|
G|-9--------------------------------------77----9-99-------------------------|
D|-9--------------------------------------77-77-9-99-------------------------|
A|-7--------------------------------------55-77-7-77-------------------------|
E|-------------------------------------------55------------------------------|
        Verse, muted base then this riff
   chorus
   solo1 ( sorry havenít got this)
e|---------------------------------------------------------------------------|
B|---------------------------------------------------------------------------|
G|--9-----------------------7------------------------------------------------|
D|--9-times 16--7-----------7-times 8----------------------------------------|
A|--7-----------7-times 8---5------------------------------------------------|
E|--------------5------------------------------------------------------------|
Play this fill(1) through all solo licks
e|---------------------------------------------------------------------------|
B|---------------------------------------------------------------------------|
G|---7/9----------------------------9--7-------------------------------------|
D|---7/9ósecond chord strummed till-9--7-7-----------------------------------|
A|---5/7----------------------------7--5-7-----------------------------------|
E|---------------------------------------5-----------------------------------|
^Bridge1

Verse
Chorus
Fill
Bridge but shorter bars


e|---------------------------------------------------------------------------|
B|---------------------------------------------------------------------------|
G|--5-5-------9--------------------------------------------------------------|
D|--5-5--7-7--9--------------------------------------------------------------|
A|--3-3--7-7ó-7--------------------------------------------------------------|
E|-------5-5-----------------------------------------------------------------|
^Fill 2^
e|-----------------------------------------------------------------------------|
B|-----------------------------------------------------------------------------|
G|--5-5-5-5----7-7-7-7---------------------------------------------------------|
D|--5-5-5-5----7-7-7-7---------------------------------------------------------|
A|--3-3-3-3----5-5-5-5---------------------------------------------------------|
E|-----------------------------------------------------------------------------|
      * * *     * * *
Then this bridge^
Chorus*2
Fill 1 times 4
Bridge 1 * 4

note there is an extended solo through all of this which I canít tab cos im crap


| /  slide up
| \  slide down
| h  hammer-on
| p  pull-off
| ~  vibrato
| +  harmonic
| x  Mute note
===============================================================================
Related for Beaujolais tab