Song name
# A B C D E F G H I J K L M N O P Q R S T U V W X Y Z

Toxic Holocaust - Thrashing Death tab

-------------------------------------------------------------------------------
			     THRASHING DEATH - Toxic Holocaust
-------------------------------------------------------------------------------
Tabbed by: Warbringer

Words and music by: Toxic Holocaust

Email: elderscrolls167@hotmail.com(please email suggestions and advice to improve this tab)
 
Tuning: Standard E tuning

Intro riff/Chorus riff(play 4 times)
e|---------------------------------------------------------------------------|
B|---------------------------------------------------------------------------|
G|---------------------------------------------------------------------------|
D|---------------------------------------------------------------------------|
A|-9-9--9-9-9--9-9--1010-101010--1010-12-12-5-7-5--9-9--9-9-9--9-9-----------|
E|-7-7--7-7-7--7-7--8-8--8-8-8---8-8--10-10-3-5-3--7-7--7-7-7--7-7-----------|
2nd Intro riff(play 8 times)
e|------------------------------------------------------------------------------------------|
B|------------------------------------------------------------------------------------------|
G|------------------------------------------------------------------------------------------|
D|------------------9-9-------------------10-10-----------------9-9-------------------------|
A|-7-5-4-0-4-5-7----7-7--7-5-4-0-4-5-7----8--8--7-5-4-0-4-5-7---7-7--7-5-4-0-4-5-7-5-5-5----|
E|--------------0-0--------------------0-0-------------------0-0-------------------3-3-3----|
Pre verse(play twice)
e|---------------------------------------------------------------------------|
B|---------------------------------------------------------------------------|
G|---------------------------------------------------------------------------|
D|---------------------------------------------------------------------------|
A|-9-9-9--10-9-10--12-12-12--14-12-10--9-9-9--10-9-10--5-5-5-5--7-7----------|
E|-7-7-7--8--7-8---10-10-10--12-10-8---7-7-7--8--7-8---3-3-3-3--5-5----------|
Verse riff(play twice)
e|---------------------------------------------------------------------------|
B|---------------------------------------------------------------------------|
G|---------------------------------------------------------------------------|
D|---------------------------------------------------------------------------|
A|-9---------10-9-10-12-------------14-12-10-9---------10-9--10-5---------5--7
E|-7-7-7-7-7-8--7-8--10-10-10-10-10-12-10-8--7-7-7-7-7-8--7--8--3-3-3-3-3-3--5
Play Chorus riff two more times
Play verse riff 3 times
Play chorus riff 2 times
Transition between verse riffs(the guitar break)
e|---------------------------------------------------------------------------|
B|---------------------------------------------------------------------------|
G|---------------------------------------------------------------------------|
D|-5-7-10-9---7--------------------------------------------------------------|
A|-3-5-8--7---5--------------------------------------------------------------|
E|---------------------------------------------------------------------------|
Play Chorus riff twice
Alternate Chorus(play twice)
e|---------------------------------------------------------------------------|
B|---------------------------------------------------------------------------|
G|---------------------------------------------------------------------------|
D|-9-9--9-9-9--9-9--1010-101010-1010-12-12-12-5-7-5--9-9--9-9-9--9-9---------|
A|-7-7--7-7-7--7-7--8-8--8-8-8--8-8--10-10-10-3-5-3--7-7--7-7-7--7-7---------|
E|---------------------------------------------------------------------------|
Play 2nd Intro riff once
Ending
e|---------------------------------------------------------------------------|
B|---------------------------------------------------------------------------|
G|---------------------------------------------------------------------------|
D|---------------------------------------------------------------------------|
A|-5-5-5---------------------------------------------------------------------|
E|-3-3-3---------------------------------------------------------------------|




| /  slide up
| \  slide down
| h  hammer-on
| p  pull-off
| ~  vibrato
| +  harmonic
| x  Mute note
===============================================================================
Tap to rate this tab
# A B C D E F G H I J K L M N O P Q R S T U V W X Y Z