Song name
# A B C D E F G H I J K L M N O P Q R S T U V W X Y Z

Toxic Holocaust - Nuke The Cross tab

NUKE THE CROSS - TOXIC HOLOCAUST

Tuning: DGCFAD

intro/verse
d--------------------------------------------------------------------------|
A--------------------------------------------------------------------------|
F--------------------------------------------------------------------------|
C----------------------------5-4-5---------------------------5-4-5---------|
G----------------------------3-2-3---------------------------3-2-3---------|
D--0-0-000-0-0-000-0-0-000----------0-0-000-0-0-000-0-0-000----------------|

repeat lots

d--------------------------------------------------------------------------|
D--------------------------------------------------------------------------|
F--------------------------------------------------------------------------|
C---------------------------7-5-7----------------------------7---5---------|
G--0-0-000-0-0-000-0-0-000--5-3-5---0-0-000-0-0-000-0-0-000--5---3---------|
D--------------------------------------------------------------------------|

d--------------------------------------------------------------------------|
A--------------------------------------------------------------------------|
F--------------------------------------------------------------------------|
C--2------------------------5-4-5---2------------------------5-4-5---------|
G--2------------------------3-2-3---2------------------------3-2-3---------|
D--0--------------------------------0--------------------------------------|

chorus

d----------------------------------------------------------------------------|
A----------------------------------------------------------------------------|
F----------------------------------------------------------------------------|
C----------------------------------------------------------------------------|
G------------------55555555333333333----------------5555555566666666---------|
D--0000000033333333-----------------0000000033333333-------------------------|

repeat and then this ending :

              NUKE THE CROSS!!!!!!!
d----------------|
A----------------|
F----------------|
C--3-------------|
G--1-------------|
D----------------|
Tap to rate this tab
# A B C D E F G H I J K L M N O P Q R S T U V W X Y Z