Song name
# A B C D E F G H I J K L M N O P Q R S T U V W X Y Z

Toxic Holocaust - Damned To Fire tab

----------------------------------------------------------------------------
			  damned to fire - toxic holocaust
----------------------------------------------------------------------------

Email:ax_ag_soad@hotmail.com


album:critical mass


e|-------------------------------------------------------|
B|-------------------------------------------------------|
G|-------------------------------------------------------|
D|-5--4--------------------------------------------------|
A|-3--2--4---7--9--7-10-9-4-7-9-7-10-9-4-----------------|
E|-------2---5--7--5-8--7-2-5-7-5-8--7-2-----------------|

part
                                          |------- and or---------|
e|-----------------|--------|------|      |-----------------------|
B|-----------------|--------|------|      |-----------------------|
G|-----------------|--------|------|      |-----------------------|
D|------------5/4--|--------|------|      |-----------------------|
A|--4-4-4-4--3/2--|-12~13~-|-4-4-4-3-5---||-4-4-5-5-4-4-5-5-4-4-7-7-5-5-4-4|
E|--2-2-2-2--------|-10~11~-|-2-2-2-3-3--||-2-2-3-3-2-2-3-3-2-2-5-5-3-3-2-2|

       |--------solo------------------------|  and or 
e|-----|--17-17-16-14-|   |-----------------|---------|-----|
B|-----|--------------|   |-----------------|---------|-----|
G|-----|--------------|   |-17-16-15-12~11~-|---------|-----|
D|-----|--------------|   |-----------------|---------|-----|
A|-7-6-|--------------|   |-----------------|---------|-9-8-|
E|-5-4-|--------------|   |-----------------|-x///////|-7-6-|

e|----------------|  |---------|
B|----------------|  |---------|
G|----------------|  |---------|
D|----------------|  |-----5-4-|
A|--4-4-4-4-5-4-4-|  |-4-7-3-2-|
E|--2-2-2-2-3-2-2-|  |-2-5-----|



e

| /  slide up
| \  slide down
| h  hammer-on
| p  pull-off
| ~  vibrato
| +  harmonic
| x  Mute note
===============================================================================

Tap to rate this tab
# A B C D E F G H I J K L M N O P Q R S T U V W X Y Z