Toxic Holocaust - The Lord Of The Wasteland tab

e|--------------------------------|--------------------------------|
B|--------------------------------|--------------------------------|
G|----------------2---------------|----------------2---------------|
D|--0-3-0-0-0-3-5---5-2-0-0-2-3---|--0-3-0-0-0-3-5---5-2-0-0-2-3---|
A|--------------------------------|--------------------------------|
E|--------------------------------|--------------------------------|

|---------------------------------|--------------------------------|
|---------------------------------|--------------------------------|
|---------------------------------|----------------2---------------|
|-5-5-5-5-5-5-5/3-5-5-5-5-5-4-3-2-|--0-3-0-0-0-3-5---5-2-0-0-2-3---|
|---------------------------------|--------------------------------|
|---------------------------------|--------------------------------|

|---------------------------------|--------------------------------|
|---------------------------------|--------------------------------|
|-----------------2---------------|----------------2---------------|
|---0-3-0-0-0-3-5---5-2-0-0-2-3---|--0-3-0-0-0-3-5---5-2-0-0-2-3---|
|---------------------------------|--------------------------------|
|---------------------------------|--------------------------------|

|----------------------------------|--------------------------------|
|----------------------------------|--------------------------------|
|----------------------------------|----------------2---------------|
|-8-8-8-8-10-7-7-7-5-5-5-5-3-3-3-3-|--0-3-0-0-0-3-5---5-2-0-0-2-3---|
|----------------------------------|--------------------------------|
|----------------------------------|--------------------------------|
Tap to rate this tab
 
# A B C D E F G H I J K L M N O P Q R S T U V W X Y Z