Song name
# A B C D E F G H I J K L M N O P Q R S T U V W X Y Z

Toxic Reasons - How Do You Feel tab

-------------------------------------------------------------------------------
How Do You Feel - Toxic Reasons
Independence
-------------------------------------------------------------------------------
Tabbed by: axeslash
Email: holmzito@yahoo.com

Tuning: Both guitars standard

Guitar 1:                       Guitar 1:
e|-------------------------|    e|-----------------------------------|
B|-------------------------|    B|-----------------------------------|
G|-------------------------|    G|------------------10-10--10--------|
D|-------------------------|    D|-11-11--11-8-8--8-10-10--10-10--10-|
A|-10-10--10--11-8-8--8-8--|    A|-11-11--11-8-8--8--8--8---8-10--10-|
E|--8--8---8---9-6-6--6-6--| x8 E|--9--9---9-6-6--6------------8---8-| x3

Guitar 1:				Guitar 1:
e|-----------------------------------|  E|-------------------------|
B|-----------------------------------|  B|-------------------------|
G|-----------------------------------|  G|-------------------------|
D|-11-11--11-8-8--8-10-10-10-10-10---|  D|-------------------------|
A|-11-11--11-8-8--8-10-10-10-10-10---|  A|-10-10--10--11-8-8--8-8--|
E|--9--9---9-6-6--6--8--8--8--8--8---|  E|--8--8---8---9-6-6--6-6--| x4

Guitar 1:				   Guitar 1:
e|-----------------------------------|     e|-----------------------------------|
B|-----------------------------------|     B|-----------------------------------|
G|------------------10-10--10--------|     G|-----------------------------------|
D|-11-11--11-8-8--8-10-10--10-10--10-|     D|-11-11--11-8-8--8-10-10-10-10-10---|
A|-11-11--11-8-8--8--8--8---8-10--10-|     A|-11-11--11-8-8--8-10-10-10-10-10---|
E|--9--9---9-6-6--6------------8---8-| x3  E|--9--9---9-6-6--6--8--8--8--8--8---|

Guitar 1:
e|-------------------------------------------------------------|
B|-------------------------------------------------------------|
G|-5-5-5-5-5-5-5-5-5-5-5-5-5-5-5-5-6-------------8-------------|
D|-3-3-3-3-3-3-3-3-3-3-3-3-3-3-3-3-4----6--------6----8--------|
A|--------------------------------------4-------------6--------|
E|-------------------------------------------------------------| x4
Guitar 2:
e|----------------------------------------------------|
B|-5h6-6-6-6-6-6-6-6-5h6-6-6-6-6-6-6-6----------------|
G|----------------------------------------------------|
D|----------------------------------------------------|
A|----------------------------------------------------|
E|----------------------------------------------------| x4

Guitar 1:                       Guitar 1:
e|-------------------------|    e|-----------------------------------|
B|-------------------------|    B|-----------------------------------|
G|-------------------------|    G|------------------10-10--10--------|
D|-------------------------|    D|-11-11--11-8-8--8-10-10--10-10--10-|
A|-10-10--10--11-8-8--8-8--|    A|-11-11--11-8-8--8--8--8---8-10--10-|
E|--8--8---8---9-6-6--6-6--| x8 E|--9--9---9-6-6--6------------8---8-| x3

Guitar 1:
e|-----------------------------------|
B|-----------------------------------|
G|-----------------------------------|
D|-11-11--11-8-8--8-10-10-10-10-10---|
A|-11-11--11-8-8--8-10-10-10-10-10---|
E|--9--9---9-6-6--6--8--8--8--8--8---|

Guitar 1:
e|-----------------------------------------------------------------------------------------|
B|-----------------------------------------------------------------------------------------|
G|-----------------------------------------------------------------------------------------|
D|-----------------------------------------10-10-10-10-10-10-10-10-10-10-10-10-10-10-10-10-|
A|-8-8-8-8-8-8-8-8-11-11-11-11-11-11-11-11--8--8--8--8--8--8--8--8--8--8--8--8--8--8--8--8-|
E|-6-6-6-6-6-6-6-6--9--9--9--9--9--9--9--9-------------------------------------------------| x3
Guitar 2:
e|---------------------8~--8~--8~--8~--8~--8~--8~--8~--|
B|-5^--------8^----------------------------------------|
G|-----------------------------------------------------|
D|-----------------------------------------------------|
A|-----------------------------------------------------|
E|-----------------------------------------------------| x3

Guitar 1:
e|-------------------------------------------------------------------------|
B|-------------------------------------------------------------------------|
G|-------------------------------------------------------------------------|
D|-----------------------------------------10-10-10-10-10-10-10-10---------|
A|-8-8-8-8-8-8-8-8-11-11-11-11-11-11-11-11--8--8--8--8--8--8--8--8---------|
E|-6-6-6-6-6-6-6-6--9--9--9--9--9--9--9--9---------------------------------|
Guitar 2:
e|--------------------------------------|
B|-5^--------8^-------------------------|
G|--------------------------------------|
D|--------------------------------------|
A|--------------------------------------|
E|---------------------8~~~~~~~~--------|

Guitar 1:
e|-------------------------------------------------------------|
B|-------------------------------------------------------------|
G|-5-5-5-5-5-5-5-5-5-5-5-5-5-5-5-5-6-------------8-------------|
D|-3-3-3-3-3-3-3-3-3-3-3-3-3-3-3-3-4----6--------6----8--------|
A|--------------------------------------4-------------6--------|
E|-------------------------------------------------------------| x3
Guitar 2:
e|----------------------------------------------------|
B|-5h6-6-6-6-6-6-6-6-5h6-6-6-6-6-6-6-6----------------|
G|----------------------------------------------------|
D|----------------------------------------------------|
A|----------------------------------------------------|
E|----------------------------------------------------| x3

Guitar 1:
e|------------------------------------------------------------------------------|
B|------------------------------------------------------------------------------|
G|-5-5-5-5-5-5-5-5-5-5-5-5-5-5-5-5-6-------------8------------------------------|
D|-3-3-3-3-3-3-3-3-3-3-3-3-3-3-3-3-4----6--------6----8--------5----------------|
A|--------------------------------------4-------------6--------3----------------|
E|------------------------------------------------------------------------------|
Guitar 2:
e|----------------------------------------------------|
B|-5h6-6-6-6-6-6-6-6-5h6-6-6-6-6-6-6-6----------------|
G|----------------------------------------------------|
D|----------------------------------------------------|
A|----------------------------------------------------|
E|----------------------------------------------------|

| ^  half step note bend
| /  slide up
| \  slide down
| h  hammer-on
| p  pull-off
| ~  vibrato
| +  harmonic
| x  Mute note
===============================================================================
Tap to rate this tab
# A B C D E F G H I J K L M N O P Q R S T U V W X Y Z