Song name
# A B C D E F G H I J K L M N O P Q R S T U V W X Y Z

Toxic Reasons - Killer tab

Intro  
E---------------------------------|---------------------------------|
B---------------------------------|---------------------------------|
G---------6-6-6-6-101010108-8-8-8-|---------6-6-6-6-101010108-8-8-8-|
D-6-6-6-6-6-6-6-6-101010108-8-8-8-|-6-6-6-6-6-6-6-6-101010108-8-8-8-|
A-6-6-6-6-4-4-4-4-8-8-8-8-6-6-6-6-|-6-6-6-6-4-4-4-4-8-8-8-8-6-6-6-6-|
E-4-4-4-4-------------------------|-4-4-4-4-------------------------|

E---------------------------------|---------------------------------|
B---------------------------------|---------------------------------|
G---------6-6-6-6-101010108-8-8-8-|---------6-6-6-6-101010108-8-8-8-|
D-6-6-6-6-6-6-6-6-101010108-8-8-8-|-6-6-6-6-6-6-6-6-101010108-8-8-8-|
A-6-6-6-6-4-4-4-4-8-8-8-8-6-6-6-6-|-6-6-6-6-4-4-4-4-8-8-8-8-6-6-6-6-|
E-4-4-4-4-------------------------|-4-4-4-4-------------------------|

E---------------------------------|---------------------------------|
B---------------------------------|---------------------------------|
G-----------------8-8-8-8-6-6-6-6-|-----------------8-8-8-8-6-6-6-6-|
D-6-6-------------8-8-8-8-6-6-6-6-|-6-6-------------8-8-8-8-6-6-6-6-|
A-6-6-------------6-6-6-6-4-4-4-4-|-6-6-------------6-6-6-6-4-4-4-4-|
E-4-4-----------------------------|-4-4-----------------------------|

Verse
E---------------------------------|---------------------------------|
B---------------------------------|---------------------------------|
G---------8-8-8-8---------10101010|---------8-8-8-8---------10101010|
D-6-6-6-6-8-8-8-8-8-8-8-8-10101010|-6-6-6-6-8-8-8-8-8-8-8-8-10101010|
A-6-6-6-6-6-6-6-6-8-8-8-8-8-8-8-8-|-6-6-6-6-6-6-6-6-8-8-8-8-8-8-8-8-|
E-4-4-4-4---------6-6-6-6---------|-4-4-4-4---------6-6-6-6---------|

E---------------------------------|---------------------------------|
B---------------------------------|---------------------------------|
G---------8-8-8-8---------10101010|---------8-8-8-8---------10101010|
D-6-6-6-6-8-8-8-8-8-8-8-8-10101010|-6-6-6-6-8-8-8-8-8-8-8-8-10101010|
A-6-6-6-6-6-6-6-6-8-8-8-8-8-8-8-8-|-6-6-6-6-6-6-6-6-8-8-8-8-8-8-8-8-|
E-4-4-4-4---------6-6-6-6---------|-4-4-4-4---------6-6-6-6---------|

Chorus
E---------------------------------|---------------------------------|
B---------------------------------|---------------------------------|
G---------6-6-6-6-101010108-8-8-8-|---------6-6-6-6-101010108-8-8-8-|
D-6-6-6-6-6-6-6-6-101010108-8-8-8-|-6-6-6-6-6-6-6-6-101010108-8-8-8-|
A-6-6-6-6-4-4-4-4-8-8-8-8-6-6-6-6-|-6-6-6-6-4-4-4-4-8-8-8-8-6-6-6-6-|
E-4-4-4-4-------------------------|-4-4-4-4-------------------------|

E---------------------------------|---------------------------------|
B---------------------------------|---------------------------------|
G---------6-6-6-6-101010108-8-8-8-|---------6-6-6-6-101010108-8-8-8-|
D-6-6-6-6-6-6-6-6-101010108-8-8-8-|-6-6-6-6-6-6-6-6-101010108-8-8-8-|
A-6-6-6-6-4-4-4-4-8-8-8-8-6-6-6-6-|-6-6-6-6-4-4-4-4-8-8-8-8-6-6-6-6-|
E-4-4-4-4-------------------------|-4-4-4-4-------------------------|

Post Chorus
E---------------------------------|---------------------------------|
B---------------------------------|---------------------------------|
G-----------------8-8-8-8-6-6-6-6-|-----------------8-8-8-8-6-6-6-6-|
D-6-6-------------8-8-8-8-6-6-6-6-|-6-6-------------8-8-8-8-6-6-6-6-|
A-6-6-------------6-6-6-6-4-4-4-4-|-6-6-------------6-6-6-6-4-4-4-4-|
E-4-4-----------------------------|-4-4-----------------------------|

Verse
E---------------------------------|---------------------------------|
B---------------------------------|---------------------------------|
G---------8-8-8-8---------10101010|---------8-8-8-8---------10101010|
D-6-6-6-6-8-8-8-8-8-8-8-8-10101010|-6-6-6-6-8-8-8-8-8-8-8-8-10101010|
A-6-6-6-6-6-6-6-6-8-8-8-8-8-8-8-8-|-6-6-6-6-6-6-6-6-8-8-8-8-8-8-8-8-|
E-4-4-4-4---------6-6-6-6---------|-4-4-4-4---------6-6-6-6---------|

E---------------------------------|---------------------------------|
B---------------------------------|---------------------------------|
G---------8-8-8-8---------10101010|---------8-8-8-8---------10101010|
D-6-6-6-6-8-8-8-8-8-8-8-8-10101010|-6-6-6-6-8-8-8-8-8-8-8-8-10101010|
A-6-6-6-6-6-6-6-6-8-8-8-8-8-8-8-8-|-6-6-6-6-6-6-6-6-8-8-8-8-8-8-8-8-|
E-4-4-4-4---------6-6-6-6---------|-4-4-4-4---------6-6-6-6---------|

Chorus
E---------------------------------|---------------------------------|
B---------------------------------|---------------------------------|
G---------6-6-6-6-101010108-8-8-8-|---------6-6-6-6-101010108-8-8-8-|
D-6-6-6-6-6-6-6-6-101010108-8-8-8-|-6-6-6-6-6-6-6-6-101010108-8-8-8-|
A-6-6-6-6-4-4-4-4-8-8-8-8-6-6-6-6-|-6-6-6-6-4-4-4-4-8-8-8-8-6-6-6-6-|
E-4-4-4-4-------------------------|-4-4-4-4-------------------------|

E---------------------------------|---------------------------------|
B---------------------------------|---------------------------------|
G---------6-6-6-6-101010108-8-8-8-|---------6-6-6-6-101010108-8-8-8-|
D-6-6-6-6-6-6-6-6-101010108-8-8-8-|-6-6-6-6-6-6-6-6-101010108-8-8-8-|
A-6-6-6-6-4-4-4-4-8-8-8-8-6-6-6-6-|-6-6-6-6-4-4-4-4-8-8-8-8-6-6-6-6-|
E-4-4-4-4-------------------------|-4-4-4-4-------------------------|

Bridge
E---------------------------------|---------------------------------|
B---------------------------------|---------------------------------|
G-5-5-5-5-5-5-5-5-8--------8------|-5-5-5-5-5-5-5-5-8-------8-------|
D-5-5-5-5-5-5-5-5-8---8----8--8---|-5-5-5-5-5-5-5-5-8---8---8---8---|
A-3-3-3-3-3-3-3-3-6---8----6--8---|-3-3-3-3-3-3-3-3-6---8---6---8---|
E---------------------6-------6---|---------------------6-------6---|

E---------------------------------|---------------------------------|
B---------------------------------|---------------------------------|
G-5-5-5-5-5-5-5-5-8--------8------|-5-5-5-5-5-5-5-5-8-------8-------|
D-5-5-5-5-5-5-5-5-8---8----8--8---|-5-5-5-5-5-5-5-5-8---8---8---8---|
A-3-3-3-3-3-3-3-3-6---8----6--8---|-3-3-3-3-3-3-3-3-6---8---6---8---|
E---------------------6-------6---|---------------------6-------6---|

Chorus
E---------------------------------|---------------------------------|
B---------------------------------|---------------------------------|
G---------6-6-6-6-101010108-8-8-8-|---------6-6-6-6-101010108-8-8-8-|
D-6-6-6-6-6-6-6-6-101010108-8-8-8-|-6-6-6-6-6-6-6-6-101010108-8-8-8-|
A-6-6-6-6-4-4-4-4-8-8-8-8-6-6-6-6-|-6-6-6-6-4-4-4-4-8-8-8-8-6-6-6-6-|
E-4-4-4-4-------------------------|-4-4-4-4-------------------------|

E---------------------------------|---------------------------------|
B---------------------------------|---------------------------------|
G---------6-6-6-6-101010108-8-8-8-|---------6-6-6-6-101010108-8-8-8-|
D-6-6-6-6-6-6-6-6-101010108-8-8-8-|-6-6-6-6-6-6-6-6-101010108-8-8-8-|
A-6-6-6-6-4-4-4-4-8-8-8-8-6-6-6-6-|-6-6-6-6-4-4-4-4-8-8-8-8-6-6-6-6-|
E-4-4-4-4-------------------------|-4-4-4-4-------------------------|

Outro
E---------------------------------|---------------------------------|
B---------------------------------|---------------------------------|
G---------6-6-6-6-101010108-8-8-8-|---------6-6-6-6-101010108-8-8-8-|
D-6-6-6-6-6-6-6-6-101010108-8-8-8-|-6-6-6-6-6-6-6-6-101010108-8-8-8-|
A-6-6-6-6-4-4-4-4-8-8-8-8-6-6-6-6-|-6-6-6-6-4-4-4-4-8-8-8-8-6-6-6-6-|
E-4-4-4-4-------------------------|-4-4-4-4-------------------------|

E---------------------------------|---------------------------------|
B---------------------------------|---------------------------------|
G---------6-6-6-6-101010108-8-8-8-|-8-8-8-8-8-8-8-8-8-8-8-8-8-8-8-8-|
D-6-6-6-6-6-6-6-6-101010108-8-8-8-|-8-8-8-8-8-8-8-8-8-8-8-8-8-8-8-8-|
A-6-6-6-6-4-4-4-4-8-8-8-8-6-6-6-6-|-6-6-6-6-6-6-6-6-6-6-6-6-6-6-6-6-|
E-4-4-4-4-------------------------|---------------------------------|

E---------------------------------|
B---------------------------------|
G-7/8-8-8-8-8-8-8-7/8-8-8-8-8-8-8-|
D-7/8-8-8-8-8-8-8-7/8-8-8-8-8-8-8-|
A-5/6-6-6-6-6-6-6-5/6-6-6-6-6-6-6-|
E---------------------------------|
Tap to rate this tab
# A B C D E F G H I J K L M N O P Q R S T U V W X Y Z