Song name
# A B C D E F G H I J K L M N O P Q R S T U V W X Y Z

Toxic Reasons - Somebody Help Me tab

Intro
E--------|
B--------|
G--9-----|
D--9-----|
A--7-----|
E--------|

Verse One                       x3 
E---------------------------------|-----------------|
B---------------------------------|-----------------| 
G-----------------9-9-9-9-9-9-9-9-|-----------------|
D-6-6-6-6-6-6-6-6-9-9-9-9-9-9-9-9-|-6-6-6-6-6-6-6-6-|
A-6-6-6-6-6-6-6-6-7-7-7-7-7-7-7-7-|-6-6-6-6-6-6-6-6-|
E-4-4-4-4-4-4-4-4-----------------|-4-4-4-4-4-4-4-4-|

Chorus
E-------------------------------------------------------------------|
B-------------------------------------------------------------------|
G-6-------9-------8-------7-------6-------9-------11-------14-------|
D-------------------------------------------------------------------|
A-------------------------------------------------------------------|
E-------------------------------------------------------------------|

Verse Two                       x2
E---------------------------------|
B---------------------------------|
G-9-9-9-9-9-9-9-9-----------------|
D-9-9-9-9-9-9-9-9-6-6-6-6-6-6-6-6-|
A-7-7-7-7-7-7-7-7-6-6-6-6-6-6-6-6-|
E-----------------4-4-4-4-4-4-4-4-|

Chorus
E-------------------------------------------------------------------|
B-------------------------------------------------------------------|
G-6-------9-------8-------7-------6-------9-------11-------14-------|
D-------------------------------------------------------------------|
A-------------------------------------------------------------------|
E-------------------------------------------------------------------|

Verse Three                     x2
E---------------------------------|
B---------------------------------|
G-9-9-9-9-9-9-9-9-----------------|
D-9-9-9-9-9-9-9-9-6-6-6-6-6-6-6-6-|
A-7-7-7-7-7-7-7-7-6-6-6-6-6-6-6-6-|
E-----------------4-4-4-4-4-4-4-4-|

Chorus                          x4                                  x2
E---------------------------------|-----------------------------------|
B---------------------------------|-----------------------------------|
G-6-------9-------8-------7-------|-6-------9-------11-------14-------|
D---------------------------------|-----------------------------------|
A---------------------------------|-----------------------------------|
E---------------------------------|-----------------------------------|
Tap to rate this tab
 
# A B C D E F G H I J K L M N O P Q R S T U V W X Y Z