Song name
# A B C D E F G H I J K L M N O P Q R S T U V W X Y Z

Toxoplasma - Fuehrer chords

Toxoplasma - Fuehrer

Intro:
e------------------|
H------------------|
G--0~--0~--0~--0~--|
D-5---3---2---1----|
A------------------|
E------------------|

e------------------|
H------------------|
G--0-0-0-0-0-0-0-0-|
D-5-5-3-3-2-2-1-1--| (2x)
A------------------|
E------------------|

G F E D (2x)

Verse 1:
G          F
Abgewürgte Pläne
E               D
Durchgedrehte Träume
    G
Ich hab keinen Führer
    F
Ich hab kein Ziel
    E                   D
und keine Ideen was ich ändern kann

Dann:
G F E D

e------------------|
H------------------|
G--0-0-0-0-0-0-0-0-|
D-5-5-3-3-2-2-1-1--|
A------------------|
E------------------|

G F E D

Verse 2:
G         F
Abnormale Gedanken
E                  D
Zweifel an Gott und der Welt
    G
Ich hab keinen Führer
    F
Ich hab kein Ziel
    E                   D
und keine Ideen was ich ändern kann

Dann:
G F E D

e------------------|
H------------------|
G--0-0-0-0-0-0-0-0-|
D-5-5-3-3-2-2-1-1--|
A------------------|
E------------------|

Chorus:
    G
Ich hab keinen Führer
    F
Ich brauch keinen Führer
    E
Ich will keinen Führer
    D
Ich scheiss auf nen Führer
    G
Ich hab keinen Führer
F
Hitler ist tot
E
Gott ist tot
D
Alle sind tot

Outro:
G F E D

e------------------|
H------------------|
G--0-0-0-0-0-0-0-0-| (2x)
D-5-5-3-3-2-2-1-1--|
A------------------|
E------------------|

G F E D (2x)
Ende auf G
Tap to rate this tab
 
# A B C D E F G H I J K L M N O P Q R S T U V W X Y Z