Song name
# A B C D E F G H I J K L M N O P Q R S T U V W X Y Z

Toy Dolls - Yul Brynner Was A Skinhead tab

------------------------------ GUITAR TABS ---------------------------------

The Toy Dolls: Yul Brynner was a skinhead 


Intro/

Riff A
e----------------------------|
B----------------------------|
G------7---9--7--------------|
D----9---9---9--9-8-9--------|
A----------------------------| 2x
E----------------------------|

Riff B
E--------------------------------------------|
B--------------------------------------------|
G-----9------------------------2----4--------|
D-----9------------------------2----4--------|
A-----7-------------2-----4----0----2--------| 2x
E----------------------4---------------------|

..REPEAT RIFF A..

verse 1
E---------------------------------------------|
B---------------------------------------------|
G---9-9-9-9-9-9-9-9---------9-9-9-9-----------|
D---9-9-9-9-9-9-9-9-9-9-9-9-9-9-9-9-----------|
A---7-7-7-7-7-7-7-7-9-9-9-9-7-7-7-7-----------| 2x
E-------------------7-7-7-7-------------------| 
PM   ............... ...... ......

..REPEAT RIFF A..

..REAPEAT VERSE 1.. 

..REPEAT RIFF A..

pre chorus
e------------------|
B------------------|
G-----7~~-----3~~--|
D----7-------3-----|
A---5-------1------|1x
E------------------|

chorus
e----------------------------|
B----------------------------|
G------------7---------------|
D-----7------7------7--------|
A-----7------5------7--------|2x
E-----5-------------5--------|

Verse 2
E----------------------------------|
B----------------------------------|
G---9-9-9-9-9-9-9-9----------------|
D---9-9-9-9-9-9-9-9-9-9-9-9----9---|
A---7-7-7-7-7-7-7-7-9-9-9-9----9---| 1x
E-------------------7-7-7-7----7---|

..REAPEAT CHORUS..

..REAPEAT VERSE 2..

..REAPEAT RIFF B..

..REAPEAT RIFF A..

..REPEAT VERSE 1..

..REAPEAT RIFF A..

..REPEAT VERSE 1..

..REAPEAT PRE CHORUS..

..REAPEAT CHORUS..

..REAPEAT VERSE 2..

SOLO...

..REAPEAT CHORUS..

..REAPEAT VERSE 2..

..REAPEAT CHORUS..

..REAPEAT VERSE 2..

..REAPEAT RIFF B..

..REAPEAT RIFF A..



----------------------------------------------------------------------------

Lyric:
There's a fella from a film
reminds me of Duncan Goodewe
but he's not a proper skinhead
cause he hasn't got a tattoo

He's not as wise as he seems
coz he's just an actor
he's a dunce, I've never seen
him on the Krypton Factor

We all rinse in Silvercrin
to keep our head clean
but we know that Yul's not
a common human being
coz he uses Mr Sheen...

[Chorus:]
Yul Brynner, Yul Brynner,
they say he's a skinhead
but we know that it's a lie
Yul Brynner, Yul Brynner
he is just a baldy geezer
from the Kink & I,
Yul BBBBB Brynner

Yul Brynner was a skinhead
they said on the News,
but I've never seen Yul Brynner
wearing Doctor Martens shoes

His only claim to fame was that
he had a shiney nut
But I would look just the same
if I had my hair cut

We all rinse in Silvercrin...
[Chorus]




Tap to rate this tab
# A B C D E F G H I J K L M N O P Q R S T U V W X Y Z