Song name
# A B C D E F G H I J K L M N O P Q R S T U V W X Y Z

Toy Dolls - Stay Mellow tab

Help us improve GuitareTab! Take a short survey!
e---------------------------------------------------------------------------|
b---------------------------------------------------------------------------|
g-----------754--754------------754--754-------------------754--754-754-----|
d-6/7-7-7-7----7----7-6/7-7-7-7----7----7-6/7-7-7-6/7-7-7-----7----7---754--|
a-4/5-5-5-5-----------4/5-5-5-5-----------4/5-5-5-4/5-5-5-----------------7-|
e---------------------------------------------------------------------------|


e---------------------------------------------------------------------------|
b---------------------------------------------------------------------------|
g---------------------------------------------------------------------------|
d---------7x12--------------------------------------------------------------|
a-540-7~--5----7/6/7-xxxxx-7/6/7--------------------------------------------|
e-----5~-------5/4/5-xxxxx-5/4/5--------------------------------------------|


thats all i know for now i learned it by ear on youtube
Related for Stay Mellow tab