Song name
# A B C D E F G H I J K L M N O P Q R S T U V W X Y Z

Toy Dolls - Dougy Giro tab

Intro: x2


e|-------------------------------------------------------------------------|
H|-------------------------------------------------------------------------|
G|--11-11-11-12-12-12-14-14-14-16-16-14-14-12-12-11-11-11-12-12-12---------|
D|--0--0--0--0--0--0--0--0--0--0--0--0--0--0--0--0--0--0--0--0--0-14-12-11-|
A|----------------------------------------------------------------0--0--0--|
E|-------------------------------------------------------------------------|

Intro part 2

    G     A
e|--3-----0----------------------------------------------------------------|
H|--3-----2----------------------------------------------------------------|
G|--4-----2-----2-2-2-2-2-2-2-2-2-2-2-2-2-2-2-2----------------------------|
D|--5-----2-----0-0-0-4-4-4-0-0-0-0-0-4-4-4-0-0----------------------------|
A|--5-----0----------------------------------------------------------------|
E|--3----------------------------------------------------------------------|

    G     A     D
e|--3-----0-----2---|
H|--3-----2-----3---|
G|--4-----2-----2---|
D|--5-----2-----0---|
A|--5-----0---------|
E|--3---------------|

Verse: x2
You'll Get to figure out the strumming and stuff yourself, shouldn't be to hard

   You  can't  Guess What's  Life  For  Dougy....
  [                              PM                                       ]
e|-------------------------------------------------------------------------|
H|--3-3-3-3-3-3-3-3-3-3-3-3-3-3-3-3-3-3-2-2-2-2-2--2--2--2-----------------|
G|--2-2-2-2-2-2-2-2-2-2-2-2-2-2-2-2-2-2-2-2-2-2-2---2--2--2----------------|
D|--0-0-0-0-0-0-0-0-0-0-0-0-0-0-0-0-0-0-2-2-2-2-2----2--2------------------|
A|-------------------------------------------------------------------------|
E|-------------------------------------------------------------------------|

                                     
e|-[---------------------PM------------]-----------------------------------|
H|--3-3-3-3-3-3-3-3-3-3-3-3-3-3-3-3-3-3-2-2-2-2-2-2-2-2--------------------|
G|--2-2-2-2-2-2-2-2-2-2-2-2-2-2-2-2-2-2-2-2-2-2-2-2-2-2--------------------|
D|--0-0-0-0-0-0-0-0-0-0-0-0-0-0-0-0-0-0-2-2-2-2-2-2-2-2--------------------|
A|-------------------------------------------------------------------------|
E--------------------------------------------------------------------------|


Ref:

x2
    G     A
e|--3-----0----------------------------------------------------------------|
H|--3-----2------3-3-3-3-3-3-3-3-3-3-3-3-3-3-3-3---------------------------|
G|--4-----2------2-2-2-4-4-2-4-2-2-2-2-4-4-2-4-2---------------------------|
D|--5-----2------0-0-0-0-0-0-0-0-0-0-0-0-0-0-0-0---------------------------|
A|--5-----0----------------------------------------------------------------|
E|--3----------------------------------------------------------------------|


That's quiet much it!

Good Luck
Tap to rate this tab
# A B C D E F G H I J K L M N O P Q R S T U V W X Y Z