Song name
# A B C D E F G H I J K L M N O P Q R S T U V W X Y Z

Toy Dolls - My Girlfriends Dads A Vicar tab

my girlfriend's dad's a vicar


toy dolls


TRANSCRIBED BY RUDY GUZMAN


guzman_84@hotmail.com


   god help          me what can i do...                                              
e:----------------------------------------------------------------------|
B:----------------------------------------------------------------------|
G:----------------------------------------------------------------------|
D:-2-2--4-2--2-2--4-2------------2-2--4-2--2-2--4-2---------------------|
A:-0-0--0-0--0-0--0-0--2-2--4-2--0-0--0-0--0-0--0-0--2-2--4-2--2-2--4-2-|
E:---------------------0-0--0-0----------------------0-0--0-0--0-0--0-0-|

e:---------------------------------------------------------------------|
B:---------------------------------------------------------------------|
G:---------------------2-2--4-2----------------------2-2--4-2----------|
D:-2-2--4-2--2-2--4-2--0-0--0-0--2-2--4-2------------0-0--0-0--2-----2-|
A:-0-0--0-0--0-0--0-0------------0-0--0-0--2-2--4-2------------0--6--0-|
E:-----------------------------------------0-0--0-0---------------4----|


e:----------------------------------------------------------|
B:----------------------------------------------------------|
G:----------------------------------------------------------|
D:---2-2--4-2-4--2--2--4-2-4--2--2--4-2-4--2--9-9-9-9-9-9-9-|
A:-0-0-0--0-0-0--0--0--0-0-0--0--0--0-0-0--0--7-7-7-7-7-7-7-|
E:----------------------------------------------------------|

   god help        me..
e:----------------------------------------------------------------------|
B:----------------------------------------------------------------------|
G:----------------------------------------------------------------------|
D:-2-2--4-2--2-2--4-2------------2-2--4-2--2-2--4-2---------------------|
A:-0-0--0-0--0-0--0-0--2-2--4-2--0-0--0-0--0-0--0-0--2-2--4-2--2-2--4-2-|
E:---------------------0-0--0-0----------------------0-0--0-0--0-0--0-0-|

e:---------------------------------------------------------------------|
B:---------------------------------------------------------------------|
G:---------------------2-2--4-2----------------------2-2--4-2----------|
D:-2-2--4-2--2-2--4-2--0-0--0-0--2-2--4-2------------0-0--0-0--2-----2-|
A:-0-0--0-0--0-0--0-0------------0-0--0-0--2-2--4-2------------0--6--0-|
E:-----------------------------------------0-0--0-0---------------4----|


e:----------------------------------------------------------|
B:----------------------------------------------------------|
G:----------------------------------------------------------|
D:---2-2--4-2-4--2--2--4-2-4--2--2--4-2-4--2--9-9-9-9-9-9-9-|
A:-0-0-0--0-0-0--0--0--0-0-0--0--0--0-0-0--0--7-7-7-7-7-7-7-|
E:----------------------------------------------------------|

   god help        me..
e:----------------------------------------------------------------------|
B:----------------------------------------------------------------------|
G:----------------------------------------------------------------------|
D:-2-2--4-2--2-2--4-2------------2-2--4-2--2-2--4-2---------------------|
A:-0-0--0-0--0-0--0-0--2-2--4-2--0-0--0-0--0-0--0-0--2-2--4-2--2-2--4-2-|
E:---------------------0-0--0-0----------------------0-0--0-0--0-0--0-0-|

e:---------------------------------------------------------------------|
B:---------------------------------------------------------------------|
G:---------------------2-2--4-2----------------------2-2--4-2----------|
D:-2-2--4-2--2-2--4-2--0-0--0-0--2-2--4-2------------0-0--0-0--2-----2-|
A:-0-0--0-0--0-0--0-0------------0-0--0-0--2-2--4-2------------0--6--0-|
E:-----------------------------------------0-0--0-0---------------4----|


e:---------------------------------------------------|
B:---------------------------------------------------|
G:---------------------------------------------------|
D:---2-2--4-2-4--2--2--4-2-4--2--2--4-2-4--2---9---2-|
A:-0-0-0--0-0-0--0--0--0-0-0--0--0--0-0-0--0---7---0-|
E:---------------------------------------------------|

                 x7
e:-5-4-------------|
B:-----7-5---------|
G:---------7-6-4---|
D:---------------7-|
A:-----------------|
E:-----------------|

e:-----------------|
B:-----------------|
G:-----------------|
D:-----------------|
A:-7\--------------|
E:-5\--------------|


hillo son mex

29/10/09
Tap to rate this tab
 
# A B C D E F G H I J K L M N O P Q R S T U V W X Y Z