Song name
# A B C D E F G H I J K L M N O P Q R S T U V W X Y Z

Toy Dolls - Ive Got Asthma tab

I've Got Asthma

Riff 1:
  
   A    P.M.---| A    P.M.---|  A    P.M.---|
1:-----------------------------------------------|
2:-----------------------------------------------|
3:-2-2-----------2-2------------2-2------------2-|
4:-2-2-----------2-2------------2-2------------2-|
5:-0-0-----------0-0------------0-0------------0-|
6:------0-0-2-4-------0-0-2-4--------0-0-2-4-----|


   A    P.M.---| A    P.M.---|  D  E  (you could use power chords)    
1:------------------------------2--0-0-0-0-0-|
2:------------------------------3--0-0-0-0-0-|
3:-2-2-----------2-2------------2--2-2-2-2-2-|
4:-2-2-----------2-2------------0--2-2-2-2-2-|
5:-0-0-----------0-0---------------1-1-1-1-1-|
6:------0-0-2-4-------0-0-2-4------0-0-0-0-0-|


Riff 2:

1:---------------|
2:---------------|
3:---------------|
4:---------------|
5:---------------|
6:-0-2-0-3-0-4-0-|


Intro:

Riff 1

Verse:

During the verse the chord A is played like that:

       P.M.-----------------------| 
1:----------------------------------|
2:----------------------------------|
3:--2-------------------------------|
4:--2--4-4-2-2-4-4-2-2-4-4-2-2-4-4--|
5:--0--0-0-0-0-0-0-0-0-0-0-0-0-0-0--|
6:----------------------------------|


A                                   E
I've Got Asthma And I Can Not Breathe

Can't Breath At All!

A                          E
I've Got An Inhaler With Me

Riff 2

A                           E  
I Am Choking And My Face Is Blue

Blue And It's Getting Worse!

A                             E
I Think I Will Have To Lie Down

Chorus:

    A                    D 
Coz I've Got Asthma Yeah I've Got Asthma

     E
Yeah I've Got Asthma


Riff 1

A                        E   
I've Got Asthma And I Am Wheezing

Wheezing Like Mad!

A                          E
I Don't Think I Will Sleep Tonight

Riff 2

A                            E
I Think I'll Reach For My Inhaler

Good Idea!

A                        E
I Hope It Makes Me Feel Better


Chorus


Solo:

Here "/" means slide up to the note, and "\" - slide down from the note

   A    P.M.---| A    P.M.---|  A    P.M.---|
1:-------------------------------------------------------|
2:-------------------------------------------------------|
3:-2-2-----------2-2------------2-2----------------------|
4:-2-2-----------2-2------------2-2----------------------|
5:-0-0-----------0-0------------0-0-----------0--2--3--4-|
6:------0-0-2-4-------0-0-2-4--------0-0-2-4-------------|


1:------------------------------------------------------------|
2:-/10-10-10-10-10-10-10-10-10--10--8--7--10--5\--------------|
3:------------------------------------------------------------|
4:------------------------------------------------------------|
5:------------------------------------------------00-22-33-44-|
6:------------------------------------------------------------|


1:----------------------------------------------------------|
2:-/10-10-10-10-10-10-10-10-10--10--8--7--10\---------------|
3:----------------------------------------------------------|
4:----------------------------------------------------------|
5:----------------------------------------------00-22-33-44-|
6:----------------------------------------------------------|


1:-------------------------------------------------------------------|
2:-/10-10-10-10-10-10-10-10-10--10--8--7--12-12-12-12-12-12-12-12-12-|
3:-------------------------------------------------------------------|
4:-------------------------------------------------------------------|
5:-------------------------------------------------------------------|
6:-------------------------------------------------------------------|

A                   E
My Inhaler Needs A Refill

What Shall I Do?

A                       E
The Chemist Is Not Open Yet

Riff 2

A                                     E 
Blue Face, Can't Breath And I'm Still Wheezing

Dear Me! Dear Me!

A                          E
I Just Do Not Know What To Do

Chorus x2

And then you play several times:

 
   A    P.M.---| 
1:---------------|
2:---------------|
3:-2-2-----------|
4:-2-2-----------|
5:-0-0-----------|
6:------0-0-2-4--| 

A-chord to end the song

If you find any mistakes or want to comment it or thank me, here's my e-mail: shurik666@inbox.ru

Tap to rate this tab
# A B C D E F G H I J K L M N O P Q R S T U V W X Y Z