Song name
# A B C D E F G H I J K L M N O P Q R S T U V W X Y Z

Toy Dolls - Poor Davey tab

Intro:

1:--------------------------------------------------|
2:--------------------------------------------------|
3:--5-5--2-2--10-10-10--7-7----7-7-5--5-5-9---7--5--|
4:--3-3--3-3--8--8--8---8-8----8-8-3--3-3-10--8--3--|
5:--------------------------------------------------|
6:--------------------------------------------------|

Riff 1:
                                  P.M.-------------|   
1:--1---------3---------6----------------------------|
2:--1--1---1--3--3---3--6---------4/5-5-3-3----------|
3:--2----2----4----4----7--7---7------------5-5-3-3--|
4:--3---------5---------8----8-----------------------|
5:--3---------5---------8----------------------------|
6:--1---------3---------6----------------------------|

1:--1---------3---------6------------|
2:--1--1---1--3--3---3--6---------5--|
3:--2----2----4----4----7--7---7--5--|
4:--3---------5---------8----8----5--|
5:--3---------5---------8---------3--|
6:--1---------3---------6------------|

Verse:

Riff 2:

    F
    P.M.------------|
1:--------------------|
2:--------------------|
3:--------------------|
4:--33-3-3-3-3-3-3-3--| (x7)
5:--33-3-3-3-3-3-3-3--|
6:--00-1-1-1-1-1-1-1--|

    C               A               A#              C
1:-------------------------------------------------------------------|
2:-------------------------------------------------------------------|
3:--5-5-5-5-5-5-5-5-2-2-2-2-2-2-2-2-3-3-3-3-3-3-3-3-5-5-5-5-5-5-5-5--|
4:--5-5-5-5-5-5-5-5-2-2-2-2-2-2-2-2-3-3-3-3-3-3-3-3-5-5-5-5-5-5-5-5--|
5:--3-3-3-3-3-3-3-3-0-0-0-0-0-0-0-0-1-1-1-1-1-1-1-1-3-3-3-3-3-3-3-3--|
6:-------------------------------------------------------------------|


Repeat Riff 2 five times

    C               A               A#
1:---------------------------------------------------|
2:---------------------------------------------------|
3:--5-5-5-5-5-5-5-5-2-2-2-2-2-2-2-2-3-3-3-3-3-3-3-3--|
4:--5-5-5-5-5-5-5-5-2-2-2-2-2-2-2-2-3-3-3-3-3-3-3-3--|
5:--3-3-3-3-3-3-3-3-0-0-0-0-0-0-0-0-1-1-1-1-1-1-1-1--|
6:---------------------------------------------------|

    F               C
1:---------------------------------------------------|
2:---------------------------------------------------|
3:------------------5-5-5-5-5-5-5-5-5-5-5-5-5-5-5-5--|
4:--3-3-3-3-3-3-3-3-5-5-5-5-5-5-5-5-5-5-5-5-5-5-5-5--|
5:--3-3-3-3-3-3-3-3-3-3-3-3-3-3-3-3-3-3-3-3-3-3-3-3--|
6:--1-1-1-1-1-1-1-1----------------------------------|

Chorus:

    F                       A#              
1:-----------------------------------------------------------|
2:-----------------------------------------------------------|
3:--------------------------3-3-3-3-3-3-3-3-3-3-3-3-3-3-3-3--|
4:--3-3-3-3-3-3-3-3-3-3-3-3-3-3-3-3-3-3-3-3-3-3-3-3-3-3-3-3--|
5:--3-3-3-3-3-3-3-3-3-3-3-3-1-1-1-1-1-1-1-1-1-1-1-1-1-1-1-1--|
6:--1-1-1-1-1-1-1-1-1-1-1-1----------------------------------|

    F                               C             B C
1:-------------------------------------------------------------------|
2:-------------------------------------------------------------------|
3:----------------------------------5-5-5-5-5-5-5-4-5-5-5-5-5-5-5-5--|
4:--3-3-3-3-3-3-3-3-3-3-3-3-3-3-3-3-5-5-5-5-5-5-5-4-5-5-5-5-5-5-5-5--|
5:--3-3-3-3-3-3-3-3-3-3-3-3-3-3-3-3-3-3-3-3-3-3-3-2-3-3-3-3-3-3-3-3--|
6:--1-1-1-1-1-1-1-1-1-1-1-1-1-1-1-1----------------------------------|

    F                       A#              
1:-----------------------------------------------------------|
2:-----------------------------------------------------------|
3:--------------------------3-3-3-3-3-3-3-3-3-3-3-3-3-3-3-3--|
4:--3-3-3-3-3-3-3-3-3-3-3-3-3-3-3-3-3-3-3-3-3-3-3-3-3-3-3-3--|
5:--3-3-3-3-3-3-3-3-3-3-3-3-1-1-1-1-1-1-1-1-1-1-1-1-1-1-1-1--|
6:--1-1-1-1-1-1-1-1-1-1-1-1----------------------------------|

    G                               C
1:-------------------------------------------------------------------|
2:-------------------------------------------------------------------|
3:----------------------------------5-5-5-5-5-5-5-5-5-5-5-5-5-5-5-5--|
4:--5-5-5-5-5-5-5-5-5-5-5-5-5-5-5-5-5-5-5-5-5-5-5-5-5-5-5-5-5-5-5-5--|
5:--5-5-5-5-5-5-5-5-5-5-5-5-5-5-5-5-3-3-3-3-3-3-3-3-3-3-3-3-3-3-3-3--|
6:--3-3-3-3-3-3-3-3-3-3-3-3-3-3-3-3----------------------------------|

Repeat Verse and Chorus

Then:

Em                       B
Why Did She Love Him So? Why Did She Have To Go?

Em                       G                      C
Poor Davey Doesn't Know, Now Davey's All Alone  Alooone

Repeat Riff 1

Repeat Verse and Chorus

Ending:

    F#                              B
1:-------------------------------------------------------------------|
2:-------------------------------------------------------------------|
3:----------------------------------4-4-4-4-4-4-4-4-4-4-4-4-4-4-4-4--|
4:--4-4-4-4-4-4-4-4-4-4-4-4-4-4-4-4-4-4-4-4-4-4-4-4-4-4-4-4-4-4-4-4--|
5:--4-4-4-4-4-4-4-4-4-4-4-4-4-4-4-4-2-2-2-2-2-2-2-2-2-2-2-2-2-2-2-2--|
6:--2-2-2-2-2-2-2-2-2-2-2-2-2-2-2-2----------------------------------|

    F#                              C#            C C#
1:-------------------------------------------------------------------|
2:-------------------------------------------------------------------|
3:----------------------------------6-6-6-6-6-6-6-5-6-6-6-6-6-6-6-6--|
4:--4-4-4-4-4-4-4-4-4-4-4-4-4-4-4-4-6-6-6-6-6-6-6-5-6-6-6-6-6-6-6-6--|
5:--4-4-4-4-4-4-4-4-4-4-4-4-4-4-4-4-4-4-4-4-4-4-4-3-4-4-4-4-4-4-4-4--|
6:--2-2-2-2-2-2-2-2-2-2-2-2-2-2-2-2----------------------------------|

    F#                         B
1:--------------------------------------------------------------|
2:--------------------------------------------------------------|
3:-----------------------------4-4-4-4-4-4-4-4-4-4-4-4-4-4-4-4--|
4:--4-4-4-4-4-4-4-4-4--4--4--4-4-4-4-4-4-4-4-4-4-4-4-4-4-4-4-4--|
5:--4-4-4-4-4-4-4-4-4--4--4--4-2-2-2-2-2-2-2-2-2-2-2-2-2-2-2-2--|
6:--2-2-2-2-2-2-2-2-2--2--2--2----------------------------------|

    C#              B                F#  
1:--------------------------------------|
2:--------------------------------------|
3:--6-6-6-6-6-6-6-6-4-4-4-4-4-4-4-4-----|
4:--6-6-6-6-6-6-6-6-4-4-4-4-4-4-4-4--4--|
5:--4-4-4-4-4-4-4-4-2-2-2-2-2-2-2-2--4--|
6:-----------------------------------2--|
Tap to rate this tab
# A B C D E F G H I J K L M N O P Q R S T U V W X Y Z