Song name
# A B C D E F G H I J K L M N O P Q R S T U V W X Y Z

Toy Dolls - Toccata In Dm chords

                         TOCATTA IN DM - Toy Dolls

Tabbed by: starbreaker
Email: shurik666@inbox.ru

Tuning: standart


This tab is mainly based on Olga's video lessons 
(http://thetoydolls.com/media/guitar_menu/Play%20Guitar%20With%20Olga%202005%203.rm, 
http://thetoydolls.com/media/guitar_menu/Play%20Guitar%20With%20Olga%202005%204.rm)
The rest I figured out via live version which is on the Live in Japan VHS.
So this is a version for one guitar, on the Absurd Ditties Album there are several 
guitars recorded.

Intro:

1:----------------------1-------------------1--|
2:----------------------3-------------------3--|
3:----------------------2-------------------2--|
4:--7\5-7~--5\3-2-0-----0--7\5-7~--2--3-----0--|
5:------------------4~-------------------4-----|
6:---------------------------------------------|

                        Strum as many times as necessary
1:----------------------5-5-5-5-5-5-5-5--|
2:----------------------6-6-6-6-6-6-6-6--|
3:----------------------7-7-7-7-7-7-7-7--|
4:----------------------7-7-7-7-7-7-7-7--|
5:----------------5-4~--5-5-5-5-5-5-5-5--|
6:--5\3-5~--3\1-0------------------------|

    P.M.-------------------------------------------|
1:---------------------------------------------------|
2:---------------------------------------------------|
3:---------------------------------------------------|
4:---------------------------------------------------|
5:--4-5-7-4-5-7-4-5-7-4-5--7-8-10-7-8-10-7-8-10-7-8--|
6:---------------------------------------------------|

    P.M.---------------|
1:-------------------------|
2:-------------------------|
3:-------------------------|
4:--5-7-8-5-7-8-5-7-8-5-7--|
5:-------------------------|
6:-------------------------|

Then the same two riffs without palm-muting, Olga in his video plays 
them using split harmonics. 
I don't know how to play them and I couldn't understand Olga's explanations 
so if you know be so kind to let me know, my email is at the top :)
You can play it without harmonics simply as it goes:

1:---------------------------------------------------|
2:---------------------------------------------------|
3:---------------------------------------------------|
4:---------------------------------------------------|
5:--4-5-7-4-5-7-4-5-7-4-5--7-8-10-7-8-10-7-8-10-7-8--|
6:---------------------------------------------------|

1:-------------------------|
2:-------------------------|
3:-------------------------|
4:--5-7-8-5-7-8-5-7-8-5-7--|
5:-------------------------|
6:-------------------------|

Then goes the bass part after which

                        Strum as many times as necessary
1:-----------------------5-5-5-5-5-5-5-5--|
2:----------------8-11~--6-6-6-6-6-6-6-6--|
3:------------6-9--------7-7-7-7-7-7-7-7--|
4:--------5-8------------7-7-7-7-7-7-7-7--|
5:--5-4-7----------------5-5-5-5-5-5-5-5--|
6:----------------------------------------|

Then

Riff 1:

    Palm muting here is not heavy. It is played very fucking fast
    P.M.-----------------------------------------------------|
1:-------------------------------------------------------------|
2:-------------------------------------------------------------|
3:--7-777-777-777-777-777-777-777-777-777-777-777-777-777-777--|
4:--7-777-777-777-777-777-777-777-777-777-777-777-777-777-777--|
5:--5-555-555-555-555-555-555-555-555-555-555-555-555-555-555--|
6:-------------------------------------------------------------|

Riff 2:

    P.M.---------------------------------------------------------------|
1:-------------------------------------------------------------------------|
2:------------------8------8-10----8-10-11-8-10---8------------------------|
3:----7-9-10-7-9-10---9-10------10--------------10--9-10-7-9-6-7-----------|
4:--7------------------------------------------------------------7-8----7--|
5:-------------------------------------------------------------------10----|
6:-------------------------------------------------------------------------|

Riff 3:

Then the same riff again with a little change in palm muting
    P.M.--------------------------------------------------------|
1:-------------------------------------------------------------------------|
2:------------------8------8-10----8-10-11-8-10---8------------------------|
3:----7-9-10-7-9-10---9-10------10--------------10--9-10-7-9-6-7-----------|
4:--7------------------------------------------------------------7-8----7--|
5:-------------------------------------------------------------------10----|
6:-------------------------------------------------------------------------|

Riff 4:

    Gm   F    A7   Dm   C    A#   A P.M.-|
1:--3-3--1-1--0-0--1-1-----------------------|
2:--3-3--1-1--2-2--3-3--5-5--3-3-------------|
3:--3-3--2-2--0-0--2-2--5-5--3-3--2-------2--|
4:--5-5--3-3--2-2--0-0--5-5--3-3--2-------2--|
5:--5-5--3-3--0-0-------3-3--1-1--0-000-000--|
6:--3-3--1-1---------------------------------|

Riff 5:

    Gm   F    A7   Dm   C    A#   A 
1:--3-3--1-1--0-0--1-1---------------|
2:--3-3--1-1--2-2--3-3--5-5--3-3-----|
3:--3-3--2-2--0-0--2-2--5-5--3-3--2--|
4:--5-5--3-3--2-2--0-0--5-5--3-3--2--|
5:--5-5--3-3--0-0-------3-3--1-1--0--|
6:--3-3--1-1-------------------------|

The next part is played without palm muting, again Olga uses split harmonics

1:-------------------------------------------------------------------------|
2:------------------8------8-10----8-10-11-8-10---8------------------------|
3:----7-9-10-7-9-10---9-10------10--------------10--9-10-7-9-6-7-----------|
4:--7------------------------------------------------------------7-8----7--|
5:-------------------------------------------------------------------10----|
6:-------------------------------------------------------------------------|

Then again

1:----------------------------------------------------------------|
2:------------------8------8-10----8-10-11-8-10---8---------------|
3:----7-9-10-7-9-10---9-10------10--------------10--9-10-7-9-6-7--|
4:--7-------------------------------------------------------------|
5:----------------------------------------------------------------|
6:----------------------------------------------------------------|

and without any pauses to the next passage

1:-------------------------------------------------------------------1--|
2:-------------------------------------------------------------------3--|
3:----------------------------------2-3-0-2--------------------------2--|
4:--7-8-5-7-3-5-2-3-0-5-2-3-0-2---0---------3-5-2-3-0-5-2-3-0-2---0--0--|
5:------------------------------3-------------------------------3-------|
6:----------------------------------------------------------------------|


1:------------------------------------------------------------------------|
2:----6/11~----5/10~----3/8~----6/10~----6/11~----5/10~----3/8~-----------|
3:--7--------5--------3----------------7--------5--------3----------------|
4:----------------------------7----------------------------------7-7-7-7--|
5:---------------------------------------------------------------7-7-7-7--|
6:---------------------------------------------------------------5-5-5-5--|

Then you repeat Riffs 1-5

Ending:

    P.M.---------|   P.M.---------|   P.M.---------|   P.M.---------|
1:----------------------------------------------------------------------|
2:----------------------------------------------------------------------|
3:--7-777-7-10-10-7----------10-10-7--7-777-7-10-10-7----------10-10-7--|
4:-------------------7-777-7---------------------------7-777-7----------|
5:----------------------------------------------------------------------|
6:----------------------------------------------------------------------|

                                           'Til the end
1:-----------------------------------------5-5-5-5-5-5-5-5--|
2:-----------------------------------------6-6-6-6-6-6-6-6--|
3:-----------------------------------------7-7-7-7-7-7-7-7--|
4:--7-8-9-10-11-12-13-14-3-4-5-6-7-8-9-10--7-7-7-7-7-7-7-7--|
5:--5-6-7-8--9--10-11-12-1-2-3-4-5-6-7-8---5-5-5-5-5-5-5-5--|
6:----------------------------------------------------------|

/  slide up
\  slide down
~  vibrato
Tap to rate this tab
# A B C D E F G H I J K L M N O P Q R S T U V W X Y Z