Song name
# A B C D E F G H I J K L M N O P Q R S T U V W X Y Z

Toy Dolls - Barry The Roofer tab

-------------------------------------------------------------------------------
			BARRY THE ROOFER - Toy Dolls
-------------------------------------------------------------------------------
Tabbed by: Starbreaker
Email: shurik666@inbox.ru

Tuning: standart

Bass Intro (I figured it out on the guitar so it may be with mistakes, because
they sound very different):
 
        E        B         A     B     E    A     B     E
G|---------------------------------------------------------|
D|--2-2------2-2-1---------2-2-2-1-1-1-2----2-2-2-1-1-1-2--|
A|-----------------2--2--2----------------2----------------|
E|------0--0-----------------------------------------------|

      C#          F#          B
G|-------------------------------------------------------|
D|----------------4-4-4----------------------------------|
A|----4-4-4-4-4-4-------------2-2-2-2-2-2-2-2-2-2-2-2-2--|
E|--0-------------------2-2-2----------------------------|

Guitar comes in
e|-------------------------------------------------------|
B|-------------------------------------------------------|
G|----------------------------4-4-4-4-4-4-4-4-4-4-4-4-4--|
D|----------------------------4-4-4-4-4-4-4-4-4-4-4-4-4--| 
A|----------------------------2-2-2-2-2-2-2-2-2-2-2-2-2--|
E|-------------------------------------------------------|

Riff 1:

    x     x x        x x        x
e|-----0-------0--0-------0--0-----0-----------|
B|-----0-------0--0-------0--0-----0--4-4-4-4--|
G|-----1-------1--1-------1--1-----1--4-4-4-4--|
D|--2--2--2-2--2--2--2-2--2--2--2--2--4-4-4-4--| (x2)
A|--2-----2-2--------2-2--------2-----2-2-2-2--|
E|--0-----0-0--------0-0--------0--------------|
    ^  V  ^ ^  V  V  ^ ^  V  V  ^  V  ^ ^ ^ ^

Then guitar rings with an E-chord and bass plays

Verse Riff:

e|------------------------------------------------|
B|------------------------------------------------|
G|------------------------------------------------|
D|--4/9--9-9-9--4/9--9-9-9--4/9--9-9-9--9-9--4-4--| (x3)
A|--2/7--7-7-7--2/7--7-7-7--2/7--7-7-7--7-7--2-2--|
E|------------------------------------------------|

Bridge before the chorus:

Is That Barry The Roofer Man? Please Come To Me As Quick As You Can    
e|---------------------------------------------------|
B|---------------------------------------------------|
G|--2-2-2-2-2-2-2-2-2-2-2-2-2-2-2-2-2-2-2-2-2-2-2-2--|
D|--2-2-2-2-2-2-2-2-2-2-2-2-2-2-2-2-2-2-2-2-2-2-2-2--|
A|--0-0-0-0-0-0-0-0-0-0-0-0-0-0-0-0-0-0-0-0-0-0-0-0--|
E|---------------------------------------------------|

Barry The Roofer, Barry The Roofer, Barry The Roofer Man
e|---------------------------------------------------|
B|---------------------------------------------------|
G|--4-4-4-4-4-4-4-4-4-4-4-4-4-4-4-4-4-4-4-4-4-4-4-4--|
D|--4-4-4-4-4-4-4-4-4-4-4-4-4-4-4-4-4-4-4-4-4-4-4-4--|
A|--2-2-2-2-2-2-2-2-2-2-2-2-2-2-2-2-2-2-2-2-2-2-2-2--|
E|---------------------------------------------------|

Chorus 1 (shuffle rhytm):

    P.M.------------------------------------|    
e|--------------------------------------------|
B|--------------------------------------------|
G|-----------------------4--4-4--4-4--4-4--4--|
D|--2--2-2--2-2--2-2--2--4--4-4--4-4--4-4--4--|
A|--2--2-2--2-2--2-2--2--2--2-2--2-2--2-2--2--|
E|--0--0-0--0-0--0-0--0-----------------------|


e|--------------------------------------------|
B|--------------------------------------------|
G|--2-2-2-4-4-4----------2-2-2-4-4-4----------|
D|--2-2-2-4-4-4--2--2-2--2-2-2-4-4-4--2--2-2--|
A|--0-0-0-2-2-2--2--2-2--0-0-0-2-2-2--2--2-2--|
E|---------------0--0-0---------------0--0-0--|


e|----------------------------------------------|
B|----------------------------------------------|
G|--6-6-------4-4-4-4-4-4-4-4-4-4-4-4-4-4--4-4--|
D|--6-6--4-4--4-4-4-4-4-4-4-4-4-4-4-4-4-4--4-4--|
A|--4-4--4-4--2-2-2-2-2-2-2-2-2-2-2-2-2-2--2-2--|
E|-------2-2------------------------------------|

Riff 1 (x2)

Verse Riff (x1)

Bridge before the chorus (x1)

Chorus 2:

    P.M.------------------------------------|    
e|--------------------------------------------|
B|--------------------------------------------|
G|-----------------------4--4-4--4-4--4-4--4--|
D|--2--2-2--2-2--2-2--2--4--4-4--4-4--4-4--4--|
A|--2--2-2--2-2--2-2--2--2--2-2--2-2--2-2--2--|
E|--0--0-0--0-0--0-0--0-----------------------|


e|--------------------------------------------|
B|--------------------------------------------|
G|--2-2-2-4-4-4----------2-2-2-4-4-4----------|
D|--2-2-2-4-4-4--2--2-2--2-2-2-4-4-4--2--2-2--|
A|--0-0-0-2-2-2--2--2-2--0-0-0-2-2-2--2--2-2--|
E|---------------0--0-0---------------0--0-0--|

   P.M.------------------------------------------|
e|-------------------------------------------------|
B|-------------------------------------------------|
G|-------------------------------------------------|
D|--4--4-4--4--2--2-2--2--8/9-9-8/9-9-8/9-9-8/9-9--|
A|--2--2-2--2--0--0-0--0--6/7-7-6/7-7-6/7-7-6/7-7--|
E|-------------------------------------------------|


   P.M.-----------------|
e|---------------------------|
B|---------------------------|
G|------------------------9--|
D|--4--4-4--4--2--2-2--2--9--|
A|--2--2-2--2--0--0-0--0--7--|
E|---------------------------|

Solo:

Here two guitars are played simultaneously 

Lead Guitar:

e|----------------------------------------------------|
B|--18p13----------13-18p13----------18-17------18b~--|
G|--------14----14----------14----14--------17--------|
D|-----------15----------------15---------------------|
A|----------------------------------------------------|
E|----------------------------------------------------|

Rhytm Guitar

e|----------------------------------------------------|
B|----------------------------------------------------|
G|-----------------------------------5----------5-----|
D|--3--------------3-----------------5----------5-----|
A|--3--------------3-----------------3----------3-----|
E|--1--------------1----------------------------------|

Lead guitar:

e|--7/8-8-8-7/8-8-8-7/8-8-8-7/8-8-8----------------|
B|--7/8-8-8-7/8-8-8-7/8-8-8-7/8-8-8------13--16b~--|
G|--8/9-9-9-8/9-9-9-8/9-9-9-8/9-9-9--10------------|
D|-------------------------------------------------|
A|-------------------------------------------------|
E|-------------------------------------------------|

Rhytm guitar:
                                     P.M.--------------------|     
e|-------------------------------------------------------------|
B|-------------------------------------------------------------|
G|--5---------------5------------------------------------------|
D|--5---------------5------------------------------------------|
A|--3---------------3-----------------3-3-3-3-3-3-3-3-3-3-3-3--|
E|------------------------------------1-1-1-1-1-1-1-1-1-1-1-1--|

Lead Guitar:

    P.M.-------|
e|---------------------------------------------------------|
B|--------6------------13/18-13----------------------------|
G|------5---5-------14----------14--13b~--10-13-12---16b~--|
D|----7-------7--15----------------------------------------|
A|--8------------------------------------------------------|
E|---------------------------------------------------------|

Rhytm Guitar:

e|------------------------------------------------------|
B|------------------------------------------------------|
G|----------------------------------7--------6-------5--|
D|--3------------3------------------7--------6-------5--|
A|--3------------3------------------5--------4-------3--|
E|--1------------1--------------------------------------|

Then:

e|------------------------------------|
B|------------------------------------|
G|--3-3-3-5-5-5-10\--3-3-3-5-5-5-10\--|
D|--3-3-3-5-5-5-10\--3-3-3-5-5-5-10\--|
A|--1-1-1-3-3-3-8-\--1-1-1-3-3-3-8-\--|
E|------------------------------------|

Then again only bass plays

And guitar comes in before the repetition of the chorus:

e|------------|
B|------------|
G|--5-5--5-5--|
D|--5-5--5-5--|
A|--3-3--3-3--|
E|------------|

    P.M.------------------------------------|    
e|--------------------------------------------|
B|--------------------------------------------|
G|-----------------------7--7-7--7-7--7-7--7--|
D|--5--5-5--5-5--5-5--5--7--7-7--7-7--7-7--7--|
A|--5--5-5--5-5--5-5--5--5--5-5--5-5--5-5--5--|
E|--3--3-3--3-3--3-3--3-----------------------|

e|--------------------------------------------|
B|--------------------------------------------|
G|--5-5-5-7-7-7----------5-5-5-7-7-7----------|
D|--5-5-5-7-7-7--5--5-5--5-5-5-7-7-7--5--5-5--|
A|--3-3-3-5-5-5--5--5-5--3-3-3-5-5-5--5--5-5--|
E|---------------3--3-3---------------3--3-3--|

   P.M.--------------------------------------------------|
e|---------------------------------------------------------|
B|---------------------------------------------------------|
G|---------------------------------------------------------|
D|--5--5-5--5--3--3-3--3--9/10-10-9/10-10-9/10-10-9/10-10--|
A|--3--3-3--3--1--1-1--1--7/8--8--7/8--8--7/8--8--7/8--8---|
E|---------------------------------------------------------|

   P.M.-----------------|
e|----------------------------|
B|----------------------------|
G|------------------------10--|
D|--5--5-5--5--3--3-3--3--10--|
A|--3--3-3--3--1--1-1--1--8---|
E|----------------------------|

   P.M.--------------------------------------------------|
e|---------------------------------------------------------|
B|---------------------------------------------------------|
G|---------------------------------------------------------|
D|--5--5-5--5--3--3-3--3--9/10-10-9/10-10-9/10-10-9/10-10--| (x2)
A|--3--3-3--3--1--1-1--1--7/8--8--7/8--8--7/8--8--7/8--8---|
E|---------------------------------------------------------|

         P.M.----------------------------|
e|-----------------------------------------|
B|-----------------------------------------|
G|--5--3-----------------------------------|
D|--5--3--9/10-10-9/10-10-9/10-10-9/10-10--|
A|--3--1--7/8--8--7/8--8--7/8--8--7/8--8---|
E|-----------------------------------------|

e|---------------------------------------------------------|
B|---------------------------------------------------------|
G|--5--3--2-2-2-2-2-2-2-2-2-2-2-2-3-3-3-3-3-3-3-3-3-3-3-3--|
D|--5--3--2-2-2-2-2-2-2-2-2-2-2-2-3-3-3-3-3-3-3-3-3-3-3-3--|
A|--3--1--0-0-0-0-0-0-0-0-0-0-0-0-1-1-1-1-1-1-1-1-1-1-1-1--|
E|---------------------------------------------------------|

e|------------------|
B|------------------|
G|-----5-------10\--|
D|--3--5--3----10\--|
A|--3--3--3----8-\--|
E|--1-----1---------|

Any corrections and comments are welcomed!


| ^ - downstroke
| V - upstroke
| b - bend
| /  slide up
| \  slide down
| h  hammer-on
| p  pull-off
| ~  vibrato
| +  harmonic
| x  Mute note
===============================================================================
Tap to rate this tab
# A B C D E F G H I J K L M N O P Q R S T U V W X Y Z