Song name
# A B C D E F G H I J K L M N O P Q R S T U V W X Y Z

Toy Dolls - The Lambrusco Kid tab

-------------------------------------------------------------------------------
			     THE LAMBRUSCO KID - Toy Dolls
-------------------------------------------------------------------------------
Tabbed by: Starbreaker
Email: shurik666@inbox.ru

Tuning: standart

This tab is mainly based on the live version from the Our Last DVD

Intro:

              P.M.--------|  
e|--------------------------|
B|--------------------------|
G|--5---5---5---------------|
D|--5-5-5-5-5--5-5-5-5-5-5--| (x4)
A|--3-5-3-5-3--3-3-3-3-3-3--|
E|----3---3-----------------|

Bass:

This riff is being played while Olga is fiddling with the bottle:

G|------------------------------|      |--5--4--3--2--|  
D|-------------------------3-2--|      |--------------| 
A|-2/3-3-3-2/3-3-3-2/3-3-3------| (x3) |--------------| 
E|------------------------------|      |--------------|  

The the song starts:    

This bass part I figured out via the version from On Stage In stuttgart:

G|------------------------------------------------------------------|
D|------------------------------------------------------------------|
A|----------------------------------3--3-3-3-3-3-3--3--3-3-3-3-3-3--| (x2)
E|--1--1-1-1-1-1-1--3--3-3-3-3-3-3----------------------------------|

G|------------------------------------------------------------------|
D|--3--3-3-3-3-3-3--3--3-3-3-3-3-3--5--5-5-5-5-5-5------------------|
A|--------------------------------------------------3--3-3-3-3-3-3--| 
E|------------------------------------------------------------------|

G|---------------------------------------|
D|--5--5-5-5-5-5-5--3--3-3-3-3-3-3-------|
A|---------------------------------------| 
E|------------------------------------3--|
                                    Guitar starts with G-chord

e|-------------------------------------------------------------------|
B|------------------6-6-6-6-6-6-6-6----------------------------------|
G|--5-5-5-5-5-5-5-5-5-5-5-5-5-5-5-5-----------------5-5-5-5-5-5-5-5--|
D|--5-5-5-5-5-5-5-5-3-3-3-3-3-3-3-3-5-5-5-5-5-5-5-5-5-5-5-5-5-5-5-5--|
A|--3-3-3-3-3-3-3-3-----------------5-5-5-5-5-5-5-5-3-3-3-3-3-3-3-3--|
E|----------------------------------3-3-3-3-3-3-3-3------------------|


e|---------------------------------------------------|
B|------------------6-6-6-6-6-6-6-6------------------|
G|--5-5-5-5-5-5-5-5-5-5-5-5-5-5-5-5------------------|
D|--5-5-5-5-5-5-5-5-3-3-3-3-3-3-3-3-5-5-5-5-5-5-5-5--|
A|--3-3-3-3-3-3-3-3-----------------5-5-5-5-5-5-5-5--|
E|----------------------------------3-3-3-3-3-3-3-3--|
     P.M.--|             P.M.--|  
e|--------------------------------------------------------|
B|--------------------------------------------------------|
G|--5-------4--2--5-----5-------4--2--5-------------------|
D|--5-5-5-5-4--2--5--5--5-5-5-5-4--2--5--5-5-5-5-5-5-5-5--|
A|--3-3-3-3-2--0--3--5--3-3-3-3-2--0--3--5-5-5-5-5-5-5-5--|
E|-------------------3-------------------3-3-3-3-3-3-3-3--|

       P.M.-------|
e|---------------------------|
B|---------------------------|
G|--5---------------5---5----|
D|--5--5-5-5-5-5-5--5-5-5-5--| (x3) 
A|--3--3-3-3-3-5-5--3-5-3-5--|
E|--------------------3---3--|

e|-----------------------------------|
B|-----------------------------------|
G|--5-5-5-5-5-5-5-5-5-5-5-5-5-5-5-5--|
D|--5-5-5-5-5-5-5-5-5-5-5-5-5-5-5-5--|
A|--3-3-3-3-3-3-3-3-3-3-3-3-3-3-3-3--|
E|-----------------------------------|

e|--------------------------------------------------------|
B|--------------------------------------------------------|
G|----------------------------------5-5-5-5-5-5-5-5-------|
D|--3-3-3-3-3-3-3-3-3-3-3-3-3-3-3-3-5-5-5-5-5-5-5-5-5--5--|
A|--3-3-3-3-3-3-3-3-3-3-3-3-3-3-3-3-3-3-3-3-3-3-3-3-5--5--|
E|--1-1-1-1-1-1-1-1-1-1-1-1-1-1-1-1-----------------3--3--|

       P.M.-------|
e|---------------------------|
B|---------------------------|
G|--5---------------5---5----|
D|--5--5-5-5-5-5-5--5-5-5-5--| (x3) 
A|--3--3-3-3-3-5-5--3-5-3-5--|
E|--------------------3---3--|

e|-----------------------------------|
B|-----------------------------------|
G|--5-5-5-5-5-5-5-5-5-5-5-5-5-5-5-5--|
D|--5-5-5-5-5-5-5-5-5-5-5-5-5-5-5-5--|
A|--3-3-3-3-3-3-3-3-3-3-3-3-3-3-3-3--|
E|-----------------------------------|

e|---------------------------------------------|
B|---------------------------------------------|
G|-----------------------------------5-5--5-5--|
D|--3-3-3-3-3-3-3-3-3-3-3-3-3-3-3-3--5-5--5-5--|
A|--3-3-3-3-3-3-3-3-3-3-3-3-3-3-3-3--3-3--3-3--|
E|--1-1-1-1-1-1-1-1-1-1-1-1-1-1-1-1------------|

       P.M.-------------------------|
e|--------------------------------------------------------------------|
B|--------------------------------------------------------------------|
G|--7-----------------------------------------------------------------|
D|--7--7-7-7-7-7-7-7-7-7-7-7-7-7-7-7-3-3-3-3-3-3-3-3-3-3-3-3-3-3-3-3--|
A|--5--5-5-5-5-5-5-5-5-5-5-5-5-5-5-5-3-3-3-3-3-3-3-3-3-3-3-3-3-3-3-3--|
E|-----------------------------------1-1-1-1-1-1-1-1-1-1-1-1-1-1-1-1--|

e|-----------------------------------|
B|-----------------------------------|
G|-----------------------------------|
D|--5-5-5-5-5-5-5-5-5-5-5-5-5-5-5-5--|
A|--5-5-5-5-5-5-5-5-5-5-5-5-5-5-5-5--|
E|--3-3-3-3-3-3-3-3-3-3-3-3-3-3-3-3--|

e|-------------------------------------------------------------------|
B|------------------6-6-6-6-6-6-6-6----------------------------------|
G|--5-5-5-5-5-5-5-5-5-5-5-5-5-5-5-5-----------------5-5-5-5-5-5-5-5--|
D|--5-5-5-5-5-5-5-5-3-3-3-3-3-3-3-3-5-5-5-5-5-5-5-5-5-5-5-5-5-5-5-5--|
A|--3-3-3-3-3-3-3-3-----------------5-5-5-5-5-5-5-5-3-3-3-3-3-3-3-3--|
E|----------------------------------3-3-3-3-3-3-3-3------------------|


e|---------------------------------------------------|
B|------------------6-6-6-6-6-6-6-6------------------|
G|--5-5-5-5-5-5-5-5-5-5-5-5-5-5-5-5------------------|
D|--5-5-5-5-5-5-5-5-3-3-3-3-3-3-3-3-5-5-5-5-5-5-5-5--|
A|--3-3-3-3-3-3-3-3-----------------5-5-5-5-5-5-5-5--|
E|----------------------------------3-3-3-3-3-3-3-3--|

     P.M.--|             P.M.--| 
e|--------------------------------------------------------|
B|--------------------------------------------------------|
G|--5-------4--2--5-----5-------4--2--5-------------------|
D|--5-5-5-5-4--2--5--5--5-5-5-5-4--2--5--5-5-5-5-5-5-5-5--|
A|--3-3-3-3-2--0--3--5--3-3-3-3-2--0--3--5-5-5-5-5-5-5-5--|
E|-------------------3-------------------3-3-3-3-3-3-3-3--|

       P.M.-------|
e|---------------------------|
B|---------------------------|
G|--5---------------5---5----|
D|--5--5-5-5-5-5-5--5-5-5-5--| (x3) 
A|--3--3-3-3-3-5-5--3-5-3-5--|
E|--------------------3---3--|

e|-----------------------------------|
B|-----------------------------------|
G|--5-5-5-5-5-5-5-5-5-5-5-5-5-5-5-5--|
D|--5-5-5-5-5-5-5-5-5-5-5-5-5-5-5-5--|
A|--3-3-3-3-3-3-3-3-3-3-3-3-3-3-3-3--|
E|-----------------------------------|

e|---------------------------------------------|
B|---------------------------------------------|
G|-----------------------------------5-5--5-5--|
D|--3-3-3-3-3-3-3-3-3-3-3-3-3-3-3-3--5-5--5-5--|
A|--3-3-3-3-3-3-3-3-3-3-3-3-3-3-3-3--3-3--3-3--|
E|--1-1-1-1-1-1-1-1-1-1-1-1-1-1-1-1------------|

       P.M.-------------------------|
e|--------------------------------------------------------------------|
B|--------------------------------------------------------------------|
G|--7-----------------------------------------------------------------|
D|--7--7-7-7-7-7-7-7-7-7-7-7-7-7-7-7-3-3-3-3-3-3-3-3-3-3-3-3-3-3-3-3--|
A|--5--5-5-5-5-5-5-5-5-5-5-5-5-5-5-5-3-3-3-3-3-3-3-3-3-3-3-3-3-3-3-3--|
E|-----------------------------------1-1-1-1-1-1-1-1-1-1-1-1-1-1-1-1--|

e|-----------------------------------|
B|-----------------------------------|
G|-----------------------------------|
D|--5-5-5-5-5-5-5-5-5-5-5-5-5-5-5-5--|
A|--5-5-5-5-5-5-5-5-5-5-5-5-5-5-5-5--|
E|--3-3-3-3-3-3-3-3-3-3-3-3-3-3-3-3--|
 
e|-------------------------------------------------------------------|
B|------------------6-6-6-6-6-6-6-6----------------------------------|
G|--5-5-5-5-5-5-5-5-5-5-5-5-5-5-5-5-----------------5-5-5-5-5-5-5-5--|
D|--5-5-5-5-5-5-5-5-3-3-3-3-3-3-3-3-5-5-5-5-5-5-5-5-5-5-5-5-5-5-5-5--|
A|--3-3-3-3-3-3-3-3-----------------5-5-5-5-5-5-5-5-3-3-3-3-3-3-3-3--|
E|----------------------------------3-3-3-3-3-3-3-3------------------|


e|---------------------------------------------------|
B|------------------6-6-6-6-6-6-6-6------------------|
G|--5-5-5-5-5-5-5-5-5-5-5-5-5-5-5-5------------------|
D|--5-5-5-5-5-5-5-5-3-3-3-3-3-3-3-3-5-5-5-5-5-5-5-5--|
A|--3-3-3-3-3-3-3-3-----------------5-5-5-5-5-5-5-5--|
E|----------------------------------3-3-3-3-3-3-3-3--| 

    Am   E   Am    D
e|--0----0----0----2--|
B|--1----0----1----3--|
G|--2----1----2----2--|
D|--2----2----2----0--|
A|--0----2----0-------|
E|-------0------------|

e|-------------------------------------------------------------------|
B|-------------------------------------------------------------------|
G|-------------------------------------------------------------------|
D|--3-3-3-3-3-3-3-3-3-3-3-3-3-3-3-3-5-5-5-5-5-5-5-5-5-5-5-5-5-5-5-5--|
A|--3-3-3-3-3-3-3-3-3-3-3-3-3-3-3-3-5-5-5-5-5-5-5-5-5-5-5-5-5-5-5-5--|
E|--1-1-1-1-1-1-1-1-1-1-1-1-1-1-1-1-3-3-3-3-3-3-3-3-3-3-3-3-3-3-3-3--|

       P.M.-------|
e|---------------------------|
B|---------------------------|
G|--5---------------5---5----|
D|--5--5-5-5-5-5-5--5-5-5-5--| (x3) 
A|--3--3-3-3-3-5-5--3-5-3-5--|
E|--------------------3---3--|

e|-----------------------------------|
B|-----------------------------------|
G|--5-5-5-5-5-5-5-5-5-5-5-5-5-5-5-5--|
D|--5-5-5-5-5-5-5-5-5-5-5-5-5-5-5-5--|
A|--3-3-3-3-3-3-3-3-3-3-3-3-3-3-3-3--|
E|-----------------------------------|

e|---------------------------------------------|
B|---------------------------------------------|
G|-----------------------------------5-5--5-5--|
D|--3-3-3-3-3-3-3-3-3-3-3-3-3-3-3-3--5-5--5-5--|
A|--3-3-3-3-3-3-3-3-3-3-3-3-3-3-3-3--3-3--3-3--|
E|--1-1-1-1-1-1-1-1-1-1-1-1-1-1-1-1------------|

       P.M.-------------------------|
e|--------------------------------------------------------------------|
B|--------------------------------------------------------------------|
G|--7-----------------------------------------------------------------|
D|--7--7-7-7-7-7-7-7-7-7-7-7-7-7-7-7-3-3-3-3-3-3-3-3-3-3-3-3-3-3-3-3--|
A|--5--5-5-5-5-5-5-5-5-5-5-5-5-5-5-5-3-3-3-3-3-3-3-3-3-3-3-3-3-3-3-3--|
E|-----------------------------------1-1-1-1-1-1-1-1-1-1-1-1-1-1-1-1--|

e|-----------------------------------|
B|-----------------------------------|
G|-----------------------------------|
D|--5-5-5-5-5-5-5-5-5-5-5-5-5-5-5-5--|
A|--5-5-5-5-5-5-5-5-5-5-5-5-5-5-5-5--|
E|--3-3-3-3-3-3-3-3-3-3-3-3-3-3-3-3--|

e|-------------------------------------------------------------------|
B|------------------6-6-6-6-6-6-6-6----------------------------------|
G|--5-5-5-5-5-5-5-5-5-5-5-5-5-5-5-5-----------------5-5-5-5-5-5-5-5--|
D|--5-5-5-5-5-5-5-5-3-3-3-3-3-3-3-3-5-5-5-5-5-5-5-5-5-5-5-5-5-5-5-5--|
A|--3-3-3-3-3-3-3-3-----------------5-5-5-5-5-5-5-5-3-3-3-3-3-3-3-3--|
E|----------------------------------3-3-3-3-3-3-3-3------------------|

e|------------------------------------------------------------|
B|------------------6-6-6-6-6-6-6-6---------------------------|
G|--5-5-5-5-5-5-5-5-5-5-5-5-5-5-5-5-----------------5-5-------|
D|--5-5-5-5-5-5-5-5-3-3-3-3-3-3-3-3-5-5-5-5-5-5-5-5-5-5--6-6--|
A|--3-3-3-3-3-3-3-3-----------------5-5-5-5-5-5-5-5-3-3--6-6--|
E|----------------------------------3-3-3-3-3-3-3-3------4-4--|

e|---------------------------------------------------|
B|------------------7-7-7-7-7-7-7-7------------------|
G|--6-6-6-6-6-6-6-6-6-6-6-6-6-6-6-6------------------|
D|--6-6-6-6-6-6-6-6-4-4-4-4-4-4-4-4-6-6-6-6-6-6-6-6--|
A|--4-4-4-4-4-4-4-4-----------------6-6-6-6-6-6-6-6--|
E|----------------------------------4-4-4-4-4-4-4-4--|
                                                            (Til the end)
e|-------------------------------------------------------------------|
B|-------------------7-7-7-7-7-7-7-7---------------------------------|
G|---6-6-6-6-6-6-6-6-6-6-6-6-6-6-6-6------6---6---6-6-6-6---6-6-6-6--|
D|---6-6-6-6-6-6-6-6-4-4-4-4-4-4-4-4-6----6-6-6-6-6-6-6-6---6-6-6-6--|
A|---4-4-4-4-4-4-4-4-----------------6----4-6-4-6-4-4-4-4---4-4-4-4--|
E|-----------------------------------4------4---4--------------------|

===============================================================================
Tap to rate this tab
# A B C D E F G H I J K L M N O P Q R S T U V W X Y Z