Song name
# A B C D E F G H I J K L M N O P Q R S T U V W X Y Z

Toy Dolls - Wakey Wakey tab

-------------------------------------------------------------------------------
			WAKEY WAKEY INTRO - Toy Dolls
-------------------------------------------------------------------------------
Tabbed by: Kaue Doretto Grecchi
Email: kauedg@hotmail.com

Tuning: Standard

I've searched for a tab of this song everywhere so I transcribed it from the Olga's 
available at

http://www.thetoydolls.com/ (Multimedia -> Guitar). You can practice playing along with

http://www.youtube.com/watch?v=071zl19_H0Q . Any corrections just mail me.


e|-5-5p2h5p2---2----------------------2-----|-5-5p2h5p2---2----------------------------|
B|-----------3---3--------5-5p2h5p2-3---3---|-----------3---3-------5-5p2h5p2-3////----|
G|-----------------2------------------------|-----------------2------------------------|
D|------------------------------------------|------------------------------------------|
A|------------------------------------------|------------------------------------------|
E|------------------------------------------|------------------------------------------|

e|-7-7p4h7p4---4-----------------5p4--------|-7-7p4h7p4---4----------------------------|
B|-----------5---5-------7-7-7-7-----5-5----|-----------5---5-------7-7p4h7p4-5\\\\----|
G|-----------------4------------------------|-----------------4------------------------|
D|------------------------------------------|------------------------------------------|
A|------------------------------------------|------------------------------------------|
E|------------------------------------------|------------------------------------------|

e|-5-5p2h5p2---2-----------------3p2--------|-5-5p2h5p2---2---------------|
B|-----------3---3-------5-5-5-5-----3-3----|-----------3---3---3----2----|
G|-----------------2------------------------|-----------------4---4--2----|
D|------------------------------------------|------------------------2----|
A|------------------------------------------|-----------------------------|
E|------------------------------------------|-----------------------------|

e|-5/10-10-10p7------------------------4/5---|
B|--------------10---7-10-7---7--------4/5---|
G|--------------------------9---9-7----4/5---|
D|-------------------------------------6/7---|
A|-------------------------------------4/5---|
E|-------------------------------------4/5---|

************************************

| /   slide up
| \   slide down
| h   hammer-on
| p   pull-off
| ~   vibrato
| +   harmonic
| x   Mute note
| b   Bend
| pb  Pre-bend
| br  Bend release
| pbr Pre-bend release
| brb Bend release bend

************************************
Tap to rate this tab
 
# A B C D E F G H I J K L M N O P Q R S T U V W X Y Z