Song name
# A B C D E F G H I J K L M N O P Q R S T U V W X Y Z

Toy Dolls - Terry Talking tab

-------------------------------------------------------------------------------
			                      TERRY TALKING - Toy Dolls
-------------------------------------------------------------------------------
Tabbed by: starbreaker
Email: shurik666@inbox.ru

Tuning: standard

Intro:

                                          P.M.-----------|
e|---------------------------------------------------------|
B|---------------------------------------------------------|
G|---------------------------------------------------------|
D|-----------2----------0-------5------4--4-4-4-4-4-4-4-4--|
A|-----7--------------------2/3----4/5----2-2-2-2-2-2-2-2--|
E|--0-----0-----0--2/3-------------------------------------|

                                                  P.M.---|
e|---------------------------------------------------------|
B|---------------------------------------------------------|
G|----------------------------------------------4----------|
D|-----------2----------0-------5------4----1/4---7-5-4----|
A|-----7--------------------2/3----4/5----2-------------6--|
E|--0-----0-----0--2/3-------------------------------------|

                                          P.M.-----------|
e|---------------------------------------------------------|
B|---------------------------------------------------------|
G|---------------------------------------------------------|
D|-----------2----------0-------5------4--4-4-4-4-4-4-4-4--|
A|-----7--------------------2/3----4/5----2-2-2-2-2-2-2-2--|
E|--0-----0-----0--2/3-------------------------------------|
                                          
e|-----------------------------------------------|
B|-----------------------------------------------|
G|-----------------------------------------------|
D|-----------2----------0-------5----1--2-2-2-2--|
A|-----7--------------------2/3----2----2-2-2-2--|
E|--0-----0-----0--2/3------------------0-0-0-0--|

Verse:

        P.M.-------|     P.M. 
e|------------------------------------------|
B|------------------------------------------|
G|--9----------------7/9-----9----5----2----|
D|--9---9-9-9-9-9-9--7/9--9--9----5----2----| (x2)
A|--7---7-7-7-7-7-7--5/7--7--7----3----0----|
E|------------------------------------------|

    A lonely        lonely          dude....
e|-------------------------------------------------------------------|
B|-------------------------------------------------------------------|
G|-------------------------------------------------------------------|
D|--2-2-2-2-2-2-2-2-5-5-5-5-5-5-5-5-9-9-9-9-9-9-9-9-9-9-9-9-9-9-9-9--|
A|--2-2-2-2-2-2-2-2-5-5-5-5-5-5-5-5-9-9-9-9-9-9-9-9-9-9-9-9-9-9-9-9--|
E|--0-0-0-0-0-0-0-0-3-3-3-3-3-3-3-3-7-7-7-7-7-7-7-7-7-7-7-7-7-7-7-7--|

Verse:

        P.M.-------|     P.M. 
e|----------------------------------------------|
B|----------------------------------------------|
G|--9----------------7/9-----9------------------|
D|--9---9-9-9-9-9-9--7/9--9--9------------------| (x2)
A|--7---7-7-7-7-7-7--5/7--7--7------------------|
E|--------------------------------7/12~--12\5~--|

    Noone can       contact         Terry anymore
e|-------------------------------------------------------------------|
B|-------------------------------------------------------------------|
G|-------------------------------------------------------------------|
D|--2-2-2-2-2-2-2-2-5-5-5-5-5-5-5-5----------------------------------|
A|--2-2-2-2-2-2-2-2-5-5-5-5-5-5-5-5-----9-----9---------9-----9------|
E|--0-0-0-0-0-0-0-0-3-3-3-3-3-3-3-3-7-7-7-7-7-7-7-7-7-7-7-7-7-7-7-7--|
                                    x x   x x   x x x x   x x   x x 

    A life of                 solitude
e|-------------------------------------------------------------------|
B|-------------------------------------------------------------------|
G|-------------------------------------------------------------------|
D|--2-2-2-2-2-2-2-2-5-5-5-5-5-5-5-5-9-9-9-9-9-9-9-9-9-9-9-9-9-9-9-9--|
A|--2-2-2-2-2-2-2-2-5-5-5-5-5-5-5-5-9-9-9-9-9-9-9-9-9-9-9-9-9-9-9-9--|
E|--0-0-0-0-0-0-0-0-3-3-3-3-3-3-3-3-7-7-7-7-7-7-7-7-7-7-7-7-7-7-7-7--|

   Hello...
e|----------------------------------------------------------|
B|----------------------------------------------------------|
G|----------------------------------------------------------|
D|----------------------------------------------------------|
A|-----2--1--2-----2--5~----5/7~---7--5-----7\2-2-2/7-7-7\--|
E|--0-----------3-----------------------5-------------------|

e|--------------------------------------------|
B|--------------------------------------------|
G|--------------------------------------------|
D|-------------------------9-9-9-9-9-9-9-9-9--|
A|-----2--1--2-----2--5~---9-9-9-9-9-9-9-9-9--|
E|--0-----------3----------7-7-7-7-7-7-7-7-7--|

Terry's not at home!

                                          P.M.-----------|
e|---------------------------------------------------------|
B|---------------------------------------------------------|
G|---------------------------------------------------------|
D|-----------2----------0-------5------4--4-4-4-4-4-4-4-4--|
A|-----7--------------------2/3----4/5----2-2-2-2-2-2-2-2--|
E|--0-----0-----0--2/3-------------------------------------|
                                        
e|-----------------------------------------------|
B|-----------------------------------------------|
G|-----------------------------------------------|
D|-----------2----------0-------5----1--2-2-2-2--|
A|-----7--------------------2/3----2----2-2-2-2--|
E|--0-----0-----0--2/3------------------0-0-0-0--|

Verse:

        P.M.-------|     P.M. 
e|----------------------------------------------|
B|----------------------------------------------|
G|--9----------------7/9-----9------------------|
D|--9---9-9-9-9-9-9--7/9--9--9------------------| (x2)
A|--7---7-7-7-7-7-7--5/7--7--7------------------|
E|--------------------------------7/12~--12\5~--|

    Noone can       contact         Terry anymore
    A life of                 solitude                    
e|-------------------------------------------------------------------|
B|-------------------------------------------------------------------|
G|-------------------------------------------------------------------|
D|--2-2-2-2-2-2-2-2-5-5-5-5-5-5-5-5----------------------------------| (x2)
A|--2-2-2-2-2-2-2-2-5-5-5-5-5-5-5-5-----9-----9---------9-----9------|
E|--0-0-0-0-0-0-0-0-3-3-3-3-3-3-3-3-7-7-7-7-7-7-7-7-7-7-7-7-7-7-7-7--|
                                    x x   x x   x x x x   x x   x x 

He's a lonely dude

e|-----------------------------------|
B|-----------------------------------|
G|-----------------------------------|
D|--9-9-9-9-9-9-9-9-9-9-9-9-9-9-9-9--|
A|--9-9-9-9-9-9-9-9-9-9-9-9-9-9-9-9--|
E|--7-7-7-7-7-7-7-7-7-7-7-7-7-7-7-7--|

e|--------------------------------------------------------------|
B|--------------------------------------------------------------|
G|--------------------------------------------------------------|
D|-------------------------------------------9-9-9-9-9-9-9-9-9--|
A|-----2--1--2-----2--5~----5/7~---7--5--5\--9-9-9-9-9-9-9-9-9--|
E|--0-----------3----------------------------7-7-7-7-7-7-7-7-7--|

Solo:

    P.M.---------------------------------------------------|
e|--------------------------------------------------------------|
B|--------------------------------------------------------------|
G|--7-7-7-7-9-9-9-9-7-7-7-7-9-9-9-9-7-7-7-7-9-9-9-9-7-7-7-7-9~--|
D|--------------------------------------------------------------|
A|--------------------------------------------------------------|
E|--------------------------------------------------------------|

e|----------------------------------------------------------------|
B|----------------------------------------------------------17b~--|
G|--------------5h7h9--------------------------------10b~---------|
D|--------5h7h9-------5h7h9-------5h7h9-------5h7h9---------------|
A|--5h7h9-------------------5h7h9-------5h7h9---------------------|
E|----------------------------------------------------------------|

    P.M.---------------------------------------------------|
e|--------------------------------------------------------------|
B|--------------------------------------------------------------|
G|--7-7-7-7-9-9-9-9-7-7-7-7-9-9-9-9-7-7-7-7-9-9-9-9-7-7-7-7-9~--|
D|--------------------------------------------------------------|
A|--------------------------------------------------------------|
E|--------------------------------------------------------------|

e|-----------------------------------------|
B|------8b9r8-----8b9r8-----8b9r8----10b~--|
G|--7-7-------7-7-------7-7-------7--------|
D|-----------------------------------------|
A|-----------------------------------------|
E|-----------------------------------------|

   Hello...
e|----------------------------------------------------------|
B|----------------------------------------------------------|
G|----------------------------------------------------------|
D|----------------------------------------------------------|
A|-----2--1--2-----2--5~----5/7~---7--5-----7\2-2-2/7-7-7\--|
E|--0-----------3-----------------------5-------------------|


e|--------------------------------------------|
B|--------------------------------------------|
G|--------------------------------------------|
D|-------------------------9-9-9-9-9-9-9-9-9--|
A|-----2--1--2-----2--5~---9-9-9-9-9-9-9-9-9--|
E|--0-----------3----------7-7-7-7-7-7-7-7-7--|

Terry's not at home!

                                          P.M.-----------|
e|---------------------------------------------------------|
B|---------------------------------------------------------|
G|---------------------------------------------------------|
D|-----------2----------0-------5------4--4-4-4-4-4-4-4-4--|
A|-----7--------------------2/3----4/5----2-2-2-2-2-2-2-2--|
E|--0-----0-----0--2/3-------------------------------------|
                                          
e|----------------------------------------|
B|----------------------------------------|
G|----------------------------------------|
D|-----------2----------0-------5------4--|
A|-----7--------------------2/3----4/5----|
E|--0-----0-----0--2/3--------------------|

Ending:
                                      P.M.----------------------------|
e|--7-------------------------------------------------------------------|
B|----10-8-7-10-8-7---8-7-----7-----------------------------------------|
G|------------------9-----9-7---9-7\---4-2-----2------------------------|
D|-----------------------------------------5-4---5-4-2-5-4-2---4-2------|
A|-----------------------------------------------------------5-----5-3--|
E|----------------------------------------------------------------------|

e|-----------------------|
B|-----------------------|
G|--9--8--9-------8--9\--|
D|--9--8--9-------8--9\--|
A|--7--6--7-------6--7\--|
E|-----------------------|

Addition:

On the live album "Treasured Toy Dolls Tracks" 
first part of the solo is played something like that:

e|----------------------------------------------------------------|
B|----------------------------------------------------------17b~--|
G|--------------------------------------7h9h11--------10b~--------|
D|--------5h7h9-------------------5h7h9--------5h7h9--------------|
A|--5h7h9-------5h7h9-------5h7h9---------------------------------|
E|--------------------5h7h9---------------------------------------|

If you have any comments or corrections, please send them to my e-mail above.

| /  slide up
| \  slide down
| h  hammer-on
| p  pull-off
| ~  vibrato
| +  harmonic
| x  Mute note
===============================================================================
Tap to rate this tab
 
# A B C D E F G H I J K L M N O P Q R S T U V W X Y Z