Toy Dolls - Carol Dodds Is Pregnant tab

-------------------------------------------------------------------------------
		               CAROL DODDS IS PREGNANT - Toy Dolls
-------------------------------------------------------------------------------
Tabbed by: starbreaker	
Email: shurik666@inbox.ru

Tuning: standart

Intro:

e|-------------------------------------------|
B|-------------------------------------------|
G|-------------------------------------------|
D|--------------------------4--4--7-6-4---5--|
A|--------------4---7~---7--------------7----|
E|--5---5---5-5------------------------------|

e|--------------------------------------|
B|--------------------------------------|
G|--------------------------------------|
D|--------------------------4--4--7-6~--|
A|--------------4---7~---7--------------|
E|--5---5---5-5-------------------------|


e|---------5--------------5-----------------5-----------------------------|
B|--/7--5----------/7--5---------/7--5-555--------------------------------|
G|--------------------------------------------------7-6~--7-6-4~----4-6~--|
D|------------7~-------------7~----------------7~-----------------7-------|
A|------------------------------------------------------------------------|
E|------------------------------------------------------------------------|

Verse 1:

      P.M.-------------------------|  P.M.-------------------------|
e|-------------------------------------------------------------------|
B|-------------------------------------------------------------------|
G|----------------------------------6-6-6-6-6-6-6-6-6-6-6-6-6-6-6-6--|
D|--4-4-4-4-4-4-4-4-4-4-4-4-4-4-4-4-4-4-4-4-4-4-4-4-4-4-4-4-4-4-4-4--|
A|--2-2-2-2-2-2-2-2-2-2-2-2-2-2-2-2----------------------------------|
E|-------------------------------------------------------------------|

e|-------------------------------------------------------------------|
B|-------------------------------------------------------------------|
G|------------------4-4-4-4-4-4-4-4-----------------4-4-4-4-4-4-4-4--|
D|--2-2-2-2-2-2-2-2-4-4-4-4-4-4-4-4-2-2-2-2-2-2-2-2-4-4-4-4-4-4-4-4--|
A|--2-2-2-2-2-2-2-2-2-2-2-2-2-2-2-2-2-2-2-2-2-2-2-2-2-2-2-2-2-2-2-2--|
E|--0-0-0-0-0-0-0-0-----------------0-0-0-0-0-0-0-0------------------|

e|-----------------------------------|
B|-----------------------------------|
G|-----------------------------------|
D|--4-4-4-4-4-4-4-4-4-4-4-4-4-4-4-4--|
A|--4-4-4-4-4-4-4-4-4-4-4-4-4-4-4-4--|
E|--2-2-2-2-2-2-2-2-2-2-2-2-2-2-2-2--|

      P.M.-------------------------|  P.M.-------------------------|
e|-------------------------------------------------------------------|
B|-------------------------------------------------------------------|
G|----------------------------------6-6-6-6-6-6-6-6-6-6-6-6-6-6-6-6--|
D|--4-4-4-4-4-4-4-4-4-4-4-4-4-4-4-4-4-4-4-4-4-4-4-4-4-4-4-4-4-4-4-4--|
A|--2-2-2-2-2-2-2-2-2-2-2-2-2-2-2-2----------------------------------|
E|-------------------------------------------------------------------|

e|-------------------------------------------------------------------|
B|-------------------------------------------------------------------|
G|------------------4-4-4-4-4-4-4-4-----------------4-4-4-4-4-4-4-4--|
D|--2-2-2-2-2-2-2-2-4-4-4-4-4-4-4-4-2-2-2-2-2-2-2-2-4-4-4-4-4-4-4-4--|
A|--2-2-2-2-2-2-2-2-2-2-2-2-2-2-2-2-2-2-2-2-2-2-2-2-2-2-2-2-2-2-2-2--|
E|--0-0-0-0-0-0-0-0-----------------0-0-0-0-0-0-0-0------------------|

e|-------------------------------------------------------------------|
B|-------------------------------------------------------------------|
G|-------------------------------------------------------------------|
D|--4-4-4-4-4-4-4-4-4-4-4-4-4-4-4-4-2-2-2-2-2-2-2-2-2-2-2-2-2-2-2-2--|
A|--4-4-4-4-4-4-4-4-4-4-4-4-4-4-4-4-2-2-2-2-2-2-2-2-2-2-2-2-2-2-2-2--|
E|--2-2-2-2-2-2-2-2-2-2-2-2-2-2-2-2-0-0-0-0-0-0-0-0-0-0-0-0-0-0-0-0--|

Chorus 1:

e|-------------------------------------------------------------------|
B|-------------------------------------------------------------------|
G|----------------------------------7-7-7-7-7-7-7-7-9-9-9-9-9-9-9-9--|
D|--7-7-7-7-7-7-7-7-7-7-7-7-7-7-7-7-7-7-7-7-7-7-7-7-9-9-9-9-9-9-9-9--|
A|--7-7-7-7-7-7-7-7-7-7-7-7-7-7-7-7-5-5-5-5-5-5-5-5-7-7-7-7-7-7-7-7--|
E|--5-5-5-5-5-5-5-5-5-5-5-5-5-5-5-5----------------------------------|

e|-------------------------------------------------------------------|
B|-------------------------------------------------------------------|
G|----------------------------------7-7-7-7-7-7-7-7-9-9-9-9-9-9-9-9--|
D|--7-7-7-7-7-7-7-7-7-7-7-7-7-7-7-7-7-7-7-7-7-7-7-7-9-9-9-9-9-9-9-9--|
A|--7-7-7-7-7-7-7-7-7-7-7-7-7-7-7-7-5-5-5-5-5-5-5-5-7-7-7-7-7-7-7-7--|
E|--5-5-5-5-5-5-5-5-5-5-5-5-5-5-5-5----------------------------------|

                       P.M.--------|                    P.M.-------|
e|-------------------------------------------------------------------|
B|-------------------------------------------------------------------|
G|------------------7-------------------------------7----------------|
D|--7-7-7-7-7-7-7-7-7---7-7-7-7-7-7-7-7-7-7-7-7-7-7-7---7-7-7-7-7-7--|
A|--7-7-7-7-7-7-7-7-5---5-5-5-5-5-5-7-7-7-7-7-7-7-7-5---5-5-5-5-5-5--|
E|--5-5-5-5-5-5-5-5-----------------5-5-5-5-5-5-5-5------------------|

                       P.M.--------|                    
e|-------------------------------------------------------------------|
B|-------------------------------------------------------------------|
G|------------------7-------------------------------9-9-9-9-9-9-9-9--|
D|--7-7-7-7-7-7-7-7-7---7-7-7-7-7-7-7-7-7-7-7-7-7-7-9-9-9-9-9-9-9-9--|
A|--7-7-7-7-7-7-7-7-5---5-5-5-5-5-5-7-7-7-7-7-7-7-7-7-7-7-7-7-7-7-7--|
E|--5-5-5-5-5-5-5-5-----------------5-5-5-5-5-5-5-5------------------|

Then goes a short version of intro:

e|------------------------------------------------5------|
B|-----------------------------------------/7--5---------|
G|-------------------------------------------------------|
D|--------------------------4--4--7-6-4--------------7~--|
A|--------------4---7~---7--------------7----------------|
E|--5---5---5-5------------------------------------------|


e|------------------------|
B|------------------------|
G|--7-6~--7-6-4~----4-6~--|
D|----------------7-------|
A|------------------------|
E|------------------------|

Verse 2 goes the same as verse 1.

Chorus 2 goes the same as chorus 1 and after it an F-chord is played:

e|--------------------------|
B|--------------------------|
G|--10--10--10--10--10--10--|
D|--10--10--10--10--10--10--|
A|--8---8---8---8---8---8---|
E|--------------------------|

Solo:
        
                                     P.M.-----------------------------------|
e|---------------------------------------------------------------------------|
B|------11------10-----8--------------8-7-8-10-11-10-8-7---------------------|
G|------------------------10--7--10----------------------10-12-10-8-7-8-7----|
D|--8-8-----8-8----8-8----------------------------------------------------10-|
A|---------------------------------------------------------------------------|
E|---------------------------------------------------------------------------|
    x x     x x    x x

e|-----------------------------------------------------------|
B|----------------11----------------11--8~-----------11--10--|
G|--------------------10~-------------------8---8-8----------|
D|--8\--8---8-8------------8---8-8---------------------------|
A|-----------------------------------------------------------|
E|-----------------------------------------------------------|

   P.M.--------------------------------|
e|-------------------------------------------|
B|--11-10-8----8-----------------------------|
G|----------10---10-8-7-8-7------------------|
D|--------------------------10-8-10-8-7-12~--|
A|-------------------------------------------|
E|-------------------------------------------|

Rhytm for solo:

e|---------------------------------------------------------------------------|
B|---------------------------------------------------------------------------|
G|----------------------------------8-8-8-8-8-8-8-8-10-10-10-10-10-10-10-10--|
D|--8-8-8-8-8-8-8-8-8-8-8-8-8-8-8-8-8-8-8-8-8-8-8-8-10-10-10-10-10-10-10-10--|
A|--8-8-8-8-8-8-8-8-8-8-8-8-8-8-8-8-6-6-6-6-6-6-6-6-8--8--8--8--8--8--8--8---|
E|--6-6-6-6-6-6-6-6-6-6-6-6-6-6-6-6------------------------------------------|

e|---------------------------------------------------------------------------|
B|---------------------------------------------------------------------------|
G|----------------------------------8-8-8-8-8-8-8-8-10-10-10-10-10-10-10-10--|
D|--8-8-8-8-8-8-8-8-8-8-8-8-8-8-8-8-8-8-8-8-8-8-8-8-10-10-10-10-10-10-10-10--|
A|--8-8-8-8-8-8-8-8-8-8-8-8-8-8-8-8-6-6-6-6-6-6-6-6-8--8--8--8--8--8--8--8---|
E|--6-6-6-6-6-6-6-6-6-6-6-6-6-6-6-6------------------------------------------|


e|---------------------------------------------------------------------------|
B|---------------------------------------------------------------------------|
G|--10-10-10-10-10-10-10-10-12-12-12-12-12-12-12-12-12-12-12-12-12-12-12-12--|
D|--10-10-10-10-10-10-10-10-12-12-12-12-12-12-12-12-12-12-12-12-12-12-12-12--|
A|--8--8--8--8--8--8--8--8--10-10-10-10-10-10-10-10-10-10-10-10-10-10-10-10--|
E|---------------------------------------------------------------------------|

Verse 3:

      P.M.-------------------------|  P.M.-------------------------|
e|-------------------------------------------------------------------|
B|-------------------------------------------------------------------|
G|----------------------------------7-7-7-7-7-7-7-7-7-7-7-7-7-7-7-7--|
D|--5-5-5-5-5-5-5-5-5-5-5-5-5-5-5-5-5-5-5-5-5-5-5-5-5-5-5-5-5-5-5-5--|
A|--3-3-3-3-3-3-3-3-3-3-3-3-3-3-3-3----------------------------------|
E|-------------------------------------------------------------------|

e|-------------------------------------------------------------------|
B|-------------------------------------------------------------------|
G|------------------5-5-5-5-5-5-5-5-----------------5-5-5-5-5-5-5-5--|
D|--3-3-3-3-3-3-3-3-5-5-5-5-5-5-5-5-3-3-3-3-3-3-3-3-5-5-5-5-5-5-5-5--|
A|--3-3-3-3-3-3-3-3-3-3-3-3-3-3-3-3-3-3-3-3-3-3-3-3-3-3-3-3-3-3-3-3--|
E|--1-1-1-1-1-1-1-1-----------------1-1-1-1-1-1-1-1------------------|

e|-----------------------------------|
B|-----------------------------------|
G|-----------------------------------|
D|--5-5-5-5-5-5-5-5-5-5-5-5-5-5-5-5--|
A|--5-5-5-5-5-5-5-5-5-5-5-5-5-5-5-5--|
E|--3-3-3-3-3-3-3-3-3-3-3-3-3-3-3-3--|

      P.M.-------------------------|  P.M.-------------------------|
e|-------------------------------------------------------------------|
B|-------------------------------------------------------------------|
G|----------------------------------7-7-7-7-7-7-7-7-7-7-7-7-7-7-7-7--|
D|--5-5-5-5-5-5-5-5-5-5-5-5-5-5-5-5-5-5-5-5-5-5-5-5-5-5-5-5-5-5-5-5--|
A|--3-3-3-3-3-3-3-3-3-3-3-3-3-3-3-3----------------------------------|
E|-------------------------------------------------------------------|

e|-------------------------------------------------------------------|
B|-------------------------------------------------------------------|
G|------------------5-5-5-5-5-5-5-5-----------------5-5-5-5-5-5-5-5--|
D|--3-3-3-3-3-3-3-3-5-5-5-5-5-5-5-5-3-3-3-3-3-3-3-3-5-5-5-5-5-5-5-5--|
A|--3-3-3-3-3-3-3-3-3-3-3-3-3-3-3-3-3-3-3-3-3-3-3-3-3-3-3-3-3-3-3-3--|
E|--1-1-1-1-1-1-1-1-----------------1-1-1-1-1-1-1-1------------------|

e|-------------------------------------------------------------------|
B|-------------------------------------------------------------------|
G|-------------------------------------------------------------------|
D|--5-5-5-5-5-5-5-5-5-5-5-5-5-5-5-5-3-3-3-3-3-3-3-3-3-3-3-3-3-3-3-3--|
A|--5-5-5-5-5-5-5-5-5-5-5-5-5-5-5-5-3-3-3-3-3-3-3-3-3-3-3-3-3-3-3-3--|
E|--3-3-3-3-3-3-3-3-3-3-3-3-3-3-3-3-1-1-1-1-1-1-1-1-1-1-1-1-1-1-1-1--|

Chorus 3:

e|---------------------------------------------------------------------------|
B|---------------------------------------------------------------------------|
G|----------------------------------8-8-8-8-8-8-8-8-10-10-10-10-10-10-10-10--|
D|--8-8-8-8-8-8-8-8-8-8-8-8-8-8-8-8-8-8-8-8-8-8-8-8-10-10-10-10-10-10-10-10--|
A|--8-8-8-8-8-8-8-8-8-8-8-8-8-8-8-8-6-6-6-6-6-6-6-6-8--8--8--8--8--8--8--8---|
E|--6-6-6-6-6-6-6-6-6-6-6-6-6-6-6-6------------------------------------------|

e|---------------------------------------------------------------------------|
B|---------------------------------------------------------------------------|
G|----------------------------------8-8-8-8-8-8-8-8-10-10-10-10-10-10-10-10--|
D|--8-8-8-8-8-8-8-8-8-8-8-8-8-8-8-8-8-8-8-8-8-8-8-8-10-10-10-10-10-10-10-10--|
A|--8-8-8-8-8-8-8-8-8-8-8-8-8-8-8-8-6-6-6-6-6-6-6-6-8--8--8--8--8--8--8--8---|
E|--6-6-6-6-6-6-6-6-6-6-6-6-6-6-6-6------------------------------------------|

                       P.M.--------|                    P.M.-------|
e|-------------------------------------------------------------------|
B|-------------------------------------------------------------------|
G|------------------8-------------------------------8----------------|
D|--8-8-8-8-8-8-8-8-8---8-8-8-8-8-8-8-8-8-8-8-8-8-8-8---8-8-8-8-8-8--|
A|--8-8-8-8-8-8-8-8-6---6-6-6-6-6-6-8-8-8-8-8-8-8-8-6---6-6-6-6-6-6--|
E|--6-6-6-6-6-6-6-6-----------------6-6-6-6-6-6-6-6------------------|

                       P.M.--------|                    
e|---------------------------------------------------------------------------|
B|---------------------------------------------------------------------------|
G|------------------8-------------------------------10-10-10-10-10-10-10-10--|
D|--8-8-8-8-8-8-8-8-8---8-8-8-8-8-8-8-8-8-8-8-8-8-8-10-10-10-10-10-10-10-10--|
A|--8-8-8-8-8-8-8-8-6---6-6-6-6-6-6-8-8-8-8-8-8-8-8-8--8--8--8--8--8--8--8---|
E|--6-6-6-6-6-6-6-6-----------------6-6-6-6-6-6-6-6--------------------------|

e|---------------------------------------------------------------------------|
B|---------------------------------------------------------------------------|
G|----------------------------------8-8-8-8-8-8-8-8-10-10-10-10-10-10-10-10--|
D|--8-8-8-8-8-8-8-8-8-8-8-8-8-8-8-8-8-8-8-8-8-8-8-8-10-10-10-10-10-10-10-10--|
A|--8-8-8-8-8-8-8-8-8-8-8-8-8-8-8-8-6-6-6-6-6-6-6-6-8--8--8--8--8--8--8--8---|
E|--6-6-6-6-6-6-6-6-6-6-6-6-6-6-6-6------------------------------------------|

e|---------------------------------------------------------------------------|
B|---------------------------------------------------------------------------|
G|----------------------------------8-8-8-8-8-8-8-8-10-10-10-10-10-10-10-10--|
D|--8-8-8-8-8-8-8-8-8-8-8-8-8-8-8-8-8-8-8-8-8-8-8-8-10-10-10-10-10-10-10-10--|
A|--8-8-8-8-8-8-8-8-8-8-8-8-8-8-8-8-6-6-6-6-6-6-6-6-8--8--8--8--8--8--8--8---|
E|--6-6-6-6-6-6-6-6-6-6-6-6-6-6-6-6------------------------------------------|

                       P.M.--------|                    P.M.-------|
e|-------------------------------------------------------------------|
B|-------------------------------------------------------------------|
G|------------------8-------------------------------8----------------|
D|--8-8-8-8-8-8-8-8-8---8-8-8-8-8-8-8-8-8-8-8-8-8-8-8---8-8-8-8-8-8--|
A|--8-8-8-8-8-8-8-8-6---6-6-6-6-6-6-8-8-8-8-8-8-8-8-6---6-6-6-6-6-6--|
E|--6-6-6-6-6-6-6-6-----------------6-6-6-6-6-6-6-6------------------|

                       P.M.--------|                    
e|---------------------------------------------------------------------------|
B|---------------------------------------------------------------------------|
G|------------------8-------------------------------10-10-10-10-10-10-10-10--|
D|--8-8-8-8-8-8-8-8-8---8-8-8-8-8-8-8-8-8-8-8-8-8-8-10-10-10-10-10-10-10-10--|
A|--8-8-8-8-8-8-8-8-6---6-6-6-6-6-6-8-8-8-8-8-8-8-8-8--8--8--8--8--8--8--8---|
E|--6-6-6-6-6-6-6-6-----------------6-6-6-6-6-6-6-6--------------------------|

Ending:

e|-----------------------------------|
B|-----------------------------------|
G|-----------------------------------|
D|--8-8-8-8-8-8-8-8-6-6-6-6-6-6-6-6--|
A|--8-8-8-8-8-8-8-8-6-6-6-6-6-6-6-6--|
E|--6-6-6-6-6-6-6-6-4-4-4-4-4-4-4-4--|

e|----------------------|
B|----------------------|
G|----------------------|
D|--8---------------8\--|
A|--8---------------8\--|
E|--6---------------6\--|

| /  slide up
| \  slide down
| h  hammer-on
| p  pull-off
| ~  vibrato
| +  harmonic
| x  Mute note
===============================================================================















Tap to rate this tab
 
# A B C D E F G H I J K L M N O P Q R S T U V W X Y Z