Song name
# A B C D E F G H I J K L M N O P Q R S T U V W X Y Z

Toy Dolls - Dougy Giro tab

-----------------------------------------------------------------------------
			     DOUGY GIRO - Toy Dolls
-----------------------------------------------------------------------------

Tabbed by: starbreaker	
Email: shurik666@inbox.ru

Tuning: standard

Intro:

e|------------|
B|------------|
G|--11-11-11--|
D|--0--0--0---|
A|------------|
E|------------|

   P.M.--------------------------------------------------------------|
e|---------------------------------------------------------------------|
B|---------------------------------------------------------------------|
G|--11-11-11-12-12-12-14-14-14-14-16-16-14-14-12-12-11-11-11-12-12-12--|
D|--0--0--0--0--0--0--0--0--0--0--0--0--0--0--0--0--0--0--0--0--0--0---|
A|---------------------------------------------------------------------|
E|---------------------------------------------------------------------|

e|--------------|
B|--------------|
G|--------------|
D|--14---12-11--|
A|--0----0--0---|
E|--------------|

   P.M.--------------------------------------------------------------|
e|---------------------------------------------------------------------|
B|---------------------------------------------------------------------|
G|--11-11-11-12-12-12-14-14-14-14-16-16-14-14-12-12-11-11-11-12-12-12--|
D|--0--0--0--0--0--0--0--0--0--0--0--0--0--0--0--0--0--0--0--0--0--0---|
A|---------------------------------------------------------------------|
E|---------------------------------------------------------------------|

e|--------------|
B|--------------|
G|--------------|
D|--14---12-11--|
A|--0----0--0---|
E|--------------|

                 P.M.----------------------------|
e|--3----------------------------------------------|
B|--3------2------3-3-3-3-3-3-3-3-3-3-3-3-3-3-3-3--|
G|--0------2------2-2-2-2-2-2-2-2-2-2-2-2-2-2-2-2--|
D|--0------2------0-0-0-4-4-4-0-0-0-0-0-4-4-4-0-0--|
A|--2------0---------------------------------------|
E|--3----------------------------------------------|

                     P.M.------------------------|
e|--3----------------------------------------------|
B|--3------2------3---3-3-3-3-3-3-3-3-3-3-3-3-3-3--|
G|--0------2------2---2-2-2-2-2-2-2-2-2-2-2-2-2-2--|
D|--0------2------0---0-0-0-0-0-0-0-0-0-0-0-0-0-0--|
A|--2------0---------------------------------------|
E|--3----------------------------------------------|

Verse:

   P.M.------------------------------------------------------------|
e|-------------------------------------------------------------------|
B|--3-3-3-3-3-3-3-3-3-3-3-3-3-3-3-3-----------------2-----2-----2----|
G|--2-2-2-2-2-2-2-2-2-2-2-2-2-2-2-2-2-2-2-2-2-2-2-2---2-----2-----2--|
D|--0-0-0-0-0-0-0-0-0-0-0-0-0-0-0-0-2-2-2-2-2-2-2-2-----2-----2------|
A|----------------------------------0-0-0-0-0-0-0-0------------------|
E|-------------------------------------------------------------------|

                                    (Here and further can use any strumming 
   P.M.----------------------------| pattern that fits two bars)
e|-------------------------------------------------------------------|
B|--3-3-3-3-3-3-3-3-3-3-3-3-3-3-3-3-2-2-2-2-2-2-2-2-2-2-2-2-2-2-2-2--|
G|--2-2-2-2-2-2-2-2-2-2-2-2-2-2-2-2-2-2-2-2-2-2-2-2-2-2-2-2-2-2-2-2--|
D|--0-0-0-0-0-0-0-0-0-0-0-0-0-0-0-0-2-2-2-2-2-2-2-2-2-2-2-2-2-2-2-2--|
A|----------------------------------0-0-0-0-0-0-0-0-0-0-0-0-0-0-0-0--|
E|-------------------------------------------------------------------|

   P.M.------------------------------------------------------------|
e|-------------------------------------------------------------------|
B|--3-3-3-3-3-3-3-3-3-3-3-3-3-3-3-3-----------------2-----2-----2----|
G|--2-2-2-2-2-2-2-2-2-2-2-2-2-2-2-2-2-2-2-2-2-2-2-2---2-----2-----2--|
D|--0-0-0-0-0-0-0-0-0-0-0-0-0-0-0-0-2-2-2-2-2-2-2-2-----2-----2------|
A|----------------------------------0-0-0-0-0-0-0-0------------------|
E|-------------------------------------------------------------------|
                                    
   P.M.----------------------------| 
e|-------------------------------------------------------------------|
B|--3-3-3-3-3-3-3-3-3-3-3-3-3-3-3-3-2-2-2-2-2-2-2-2-2-2-2-2-2-2-2-2--|
G|--2-2-2-2-2-2-2-2-2-2-2-2-2-2-2-2-2-2-2-2-2-2-2-2-2-2-2-2-2-2-2-2--|
D|--0-0-0-0-0-0-0-0-0-0-0-0-0-0-0-0-2-2-2-2-2-2-2-2-2-2-2-2-2-2-2-2--|
A|----------------------------------0-0-0-0-0-0-0-0-0-0-0-0-0-0-0-0--|
E|-------------------------------------------------------------------|

Chorus:

e|--3-3-3-3-3-3-3-3--------------------------------------------------|
B|--3-3-3-3-3-3-3-3-2-2-2-2-2-2-2-2-3-3-3-3---3-3-3-3-3-3-3---3-3-3--|
G|--0-0-0-0-0-0-0-0-2-2-2-2-2-2-2-2-2-2-2-4---2-4-2-2-2-2-4---2-4-2--|
D|--0-0-0-0-0-0-0-0-2-2-2-2-2-2-2-2-0-0-0-0---0-0-0-0-0-0-0---0-0-0--|
A|--2-2-2-2-2-2-2-2-0-0-0-0-0-0-0-0----------------------------------|
E|--3-3-3-3-3-3-3-3--------------------------------------------------|

e|--3-3-3-3-3-3-3-3--------------------|
B|--3-3-3-3-3-3-3-3-2-2-2-2-2-2-2-2-3--|
G|--0-0-0-0-0-0-0-0-2-2-2-2-2-2-2-2-2--|
D|--0-0-0-0-0-0-0-0-2-2-2-2-2-2-2-2-0--|
A|--2-2-2-2-2-2-2-2-0-0-0-0-0-0-0-0----|
E|--3-3-3-3-3-3-3-3--------------------|

Verse 2:

   P.M.------------------------------------------------------------|
e|-------------------------------------------------------------------|
B|--3-3-3-3-3-3-3-3-3-3-3-3-3-3-3-3-----------------2-----2-----2----|
G|--2-2-2-2-2-2-2-2-2-2-2-2-2-2-2-2-2-2-2-2-2-2-2-2---2-----2-----2--|
D|--0-0-0-0-0-0-0-0-0-0-0-0-0-0-0-0-2-2-2-2-2-2-2-2-----2-----2------|
A|----------------------------------0-0-0-0-0-0-0-0------------------|
E|-------------------------------------------------------------------|
                                    
   P.M.----------------------------| 
e|-------------------------------------------------------------------|
B|--3-3-3-3-3-3-3-3-3-3-3-3-3-3-3-3-2-2-2-2-2-2-2-2-2-2-2-2-2-2-2-2--|
G|--2-2-2-2-2-2-2-2-2-2-2-2-2-2-2-2-2-2-2-2-2-2-2-2-2-2-2-2-2-2-2-2--|
D|--0-0-0-0-0-0-0-0-0-0-0-0-0-0-0-0-2-2-2-2-2-2-2-2-2-2-2-2-2-2-2-2--|
A|----------------------------------0-0-0-0-0-0-0-0-0-0-0-0-0-0-0-0--|
E|-------------------------------------------------------------------|

   P.M.------------------------------------------------------------|
e|-------------------------------------------------------------------|
B|--3-3-3-3-3-3-3-3-3-3-3-3-3-3-3-3-----------------2-----2-----2----|
G|--2-2-2-2-2-2-2-2-2-2-2-2-2-2-2-2-2-2-2-2-2-2-2-2---2-----2-----2--|
D|--0-0-0-0-0-0-0-0-0-0-0-0-0-0-0-0-2-2-2-2-2-2-2-2-----2-----2------|
A|----------------------------------0-0-0-0-0-0-0-0------------------|
E|-------------------------------------------------------------------|
                                    
   P.M.----------------------------| 
e|-------------------------------------------------------------------|
B|--3-3-3-3-3-3-3-3-3-3-3-3-3-3-3-3-2-2-2-2-2-2-2-2-2-2-2-2-2-2-2-2--|
G|--2-2-2-2-2-2-2-2-2-2-2-2-2-2-2-2-2-2-2-2-2-2-2-2-2-2-2-2-2-2-2-2--|
D|--0-0-0-0-0-0-0-0-0-0-0-0-0-0-0-0-2-2-2-2-2-2-2-2-2-2-2-2-2-2-2-2--|
A|----------------------------------0-0-0-0-0-0-0-0-0-0-0-0-0-0-0-0--|
E|-------------------------------------------------------------------|

Chorus 2:

e|--3-3-3-3-3-3-3-3--------------------------------------------------|
B|--3-3-3-3-3-3-3-3-2-2-2-2-2-2-2-2-3-3-3-3---3-3-3-3-3-3-3---3-3-3--|
G|--0-0-0-0-0-0-0-0-2-2-2-2-2-2-2-2-2-2-2-4---2-4-2-2-2-2-4---2-4-2--|
D|--0-0-0-0-0-0-0-0-2-2-2-2-2-2-2-2-0-0-0-0---0-0-0-0-0-0-0---0-0-0--|
A|--2-2-2-2-2-2-2-2-0-0-0-0-0-0-0-0----------------------------------|
E|--3-3-3-3-3-3-3-3--------------------------------------------------|

e|--3-3-3-3-3-3-3-3-----------------2-2-2-2-2-2-2-2-3-3-3-3-3-3-3-3--|
B|--3-3-3-3-3-3-3-3-2-2-2-2-2-2-2-2-2-2-2-2-2-2-2-2-3-3-3-3-3-3-3-3--|
G|--0-0-0-0-0-0-0-0-2-2-2-2-2-2-2-2-2-2-2-2-2-2-2-2-0-0-0-0-0-0-0-0--|
D|--0-0-0-0-0-0-0-0-2-2-2-2-2-2-2-2-4-4-4-4-4-4-4-4-0-0-0-0-0-0-0-0--|
A|--2-2-2-2-2-2-2-2-0-0-0-0-0-0-0-0-4-4-4-4-4-4-4-4-2-2-2-2-2-2-2-2--|
E|--3-3-3-3-3-3-3-3-----------------2-2-2-2-2-2-2-2-3-3-3-3-3-3-3-3--|

      P.M.-----------------|
e|-----------------------------|
B|--3-3-3-3-3-3-3-3-3-3-3-3-3--|
G|--2-2-2-2-2-2-2-2-2-2-2-2-2--|
D|--0-0-0-0-0-0-0-0-0-0-0-0-0--|
A|-----------------------------|
E|-----------------------------|

Solo:

                                   P.M.----------------------------|
e|-------------------------------------------------------------------|
B|----------------------------------3-3-3-3-3-3-3-3-3-3-3-3-3-3-3-3--|
G|--4---4-2-1--4-4-4-2-1--4-4-4-2-1-2-2-2-2-2-2-2-2-2-2-2-2-2-2-2-2--|
D|----------------------------------0-0-0-4-4-4-0-0-0-0-0-4-4-4-0-0--|
A|-------------------------------------------------------------------|
E|-------------------------------------------------------------------|

e|-----------------------------------|
B|-----------------------------------|
G|--4---4-2-1--4-4-4-2-1--4-4-4-2-1--|
D|-----------------------------------|
A|-----------------------------------|
E|-----------------------------------|

   P.M.--------------------------------------------------------------|
e|---------------------------------------------------------------------|
B|---------------------------------------------------------------------|
G|--11-11-11-12-12-12-14-14-14-14-16-16-14-14-12-12-11-11-11-12-12-12--|
D|--0--0--0--0--0--0--0--0--0--0--0--0--0--0--0--0--0--0--0--0--0--0---|
A|---------------------------------------------------------------------|
E|---------------------------------------------------------------------|

e|--------------|
B|--------------|
G|--------------|
D|--14---12-11--|
A|--0----0--0---|
E|--------------|

                 P.M.----------------------------|
e|--3----------------------------------------------|
B|--3------2------3-3-3-3-3-3-3-3-3-3-3-3-3-3-3-3--|
G|--0------2------2-2-2-2-2-2-2-2-2-2-2-2-2-2-2-2--|
D|--0------2------0-0-0-4-4-4-0-0-0-0-0-4-4-4-0-0--|
A|--2------0---------------------------------------|
E|--3----------------------------------------------|

                     P.M.------------------------|
e|--3----------------------------------------------|
B|--3------2------3---3-3-3-3-3-3-3-3-3-3-3-3-3-3--|
G|--0------2------2---2-2-2-2-2-2-2-2-2-2-2-2-2-2--|
D|--0------2------0---0-0-0-0-0-0-0-0-0-0-0-0-0-0--|
A|--2------0---------------------------------------|
E|--3----------------------------------------------|

Verse 3:

   P.M.------------------------------------------------------------|
e|-------------------------------------------------------------------|
B|--3-3-3-3-3-3-3-3-3-3-3-3-3-3-3-3-----------------2-----2-----2----|
G|--2-2-2-2-2-2-2-2-2-2-2-2-2-2-2-2-2-2-2-2-2-2-2-2---2-----2-----2--|
D|--0-0-0-0-0-0-0-0-0-0-0-0-0-0-0-0-2-2-2-2-2-2-2-2-----2-----2------|
A|----------------------------------0-0-0-0-0-0-0-0------------------|
E|-------------------------------------------------------------------|
                                   
   P.M.----------------------------| 
e|-------------------------------------------------------------------|
B|--3-3-3-3-3-3-3-3-3-3-3-3-3-3-3-3-2-2-2-2-2-2-2-2-2-2-2-2-2-2-2-2--|
G|--2-2-2-2-2-2-2-2-2-2-2-2-2-2-2-2-2-2-2-2-2-2-2-2-2-2-2-2-2-2-2-2--|
D|--0-0-0-0-0-0-0-0-0-0-0-0-0-0-0-0-2-2-2-2-2-2-2-2-2-2-2-2-2-2-2-2--|
A|----------------------------------0-0-0-0-0-0-0-0-0-0-0-0-0-0-0-0--|
E|-------------------------------------------------------------------|

   P.M.------------------------------------------------------------|
e|-------------------------------------------------------------------|
B|--3-3-3-3-3-3-3-3-3-3-3-3-3-3-3-3-----------------2-----2-----2----|
G|--2-2-2-2-2-2-2-2-2-2-2-2-2-2-2-2-2-2-2-2-2-2-2-2---2-----2-----2--|
D|--0-0-0-0-0-0-0-0-0-0-0-0-0-0-0-0-2-2-2-2-2-2-2-2-----2-----2------|
A|----------------------------------0-0-0-0-0-0-0-0------------------|
E|-------------------------------------------------------------------|
                                    
   P.M.----------------------------| 
e|-------------------------------------------------------------------|
B|--3-3-3-3-3-3-3-3-3-3-3-3-3-3-3-3-2-2-2-2-2-2-2-2-2-2-2-2-2-2-2-2--|
G|--2-2-2-2-2-2-2-2-2-2-2-2-2-2-2-2-2-2-2-2-2-2-2-2-2-2-2-2-2-2-2-2--|
D|--0-0-0-0-0-0-0-0-0-0-0-0-0-0-0-0-2-2-2-2-2-2-2-2-2-2-2-2-2-2-2-2--|
A|----------------------------------0-0-0-0-0-0-0-0-0-0-0-0-0-0-0-0--|
E|-------------------------------------------------------------------|

Chorus 3:

e|--3-3-3-3-3-3-3-3--------------------------------------------------|
B|--3-3-3-3-3-3-3-3-2-2-2-2-2-2-2-2-3-3-3-3---3-3-3-3-3-3-3---3-3-3--|
G|--0-0-0-0-0-0-0-0-2-2-2-2-2-2-2-2-2-2-2-4---2-4-2-2-2-2-4---2-4-2--|
D|--0-0-0-0-0-0-0-0-2-2-2-2-2-2-2-2-0-0-0-0---0-0-0-0-0-0-0---0-0-0--|
A|--2-2-2-2-2-2-2-2-0-0-0-0-0-0-0-0----------------------------------|
E|--3-3-3-3-3-3-3-3--------------------------------------------------|

                                    P.M.---------------------------|
e|--3-3-3-3-3-3-3-3--------------------------------------------------|
B|--3-3-3-3-3-3-3-3-2-2-2-2-2-2-2-2-3-3-3-3-3-3-3-3-3-3-3-3-3-3-3-3--|
G|--0-0-0-0-0-0-0-0-2-2-2-2-2-2-2-2-2-2-2-2-2-2-2-2-2-2-2-2-2-2-2-2--|
D|--0-0-0-0-0-0-0-0-2-2-2-2-2-2-2-2-0-0-0-0-0-0-0-0-0-0-0-0-0-0-0-0--|
A|--2-2-2-2-2-2-2-2-0-0-0-0-0-0-0-0----------------------------------|
E|--3-3-3-3-3-3-3-3--------------------------------------------------|

e|--3-3-3-3-3-3-3-3--------------------------------------------------|
B|--3-3-3-3-3-3-3-3-2-2-2-2-2-2-2-2-3-3-3-3---3-3-3-3-3-3-3---3-3-3--|
G|--0-0-0-0-0-0-0-0-2-2-2-2-2-2-2-2-2-2-2-4---2-4-2-2-2-2-4---2-4-2--|
D|--0-0-0-0-0-0-0-0-2-2-2-2-2-2-2-2-0-0-0-0---0-0-0-0-0-0-0---0-0-0--|
A|--2-2-2-2-2-2-2-2-0-0-0-0-0-0-0-0----------------------------------|
E|--3-3-3-3-3-3-3-3--------------------------------------------------|

e|--3-3-3-3-3-3-3-3-----------------2-2-2-2-2-2-2-2-3-3-3-3-3-3-3-3--|
B|--3-3-3-3-3-3-3-3-2-2-2-2-2-2-2-2-2-2-2-2-2-2-2-2-3-3-3-3-3-3-3-3--|
G|--0-0-0-0-0-0-0-0-2-2-2-2-2-2-2-2-2-2-2-2-2-2-2-2-0-0-0-0-0-0-0-0--|
D|--0-0-0-0-0-0-0-0-2-2-2-2-2-2-2-2-4-4-4-4-4-4-4-4-0-0-0-0-0-0-0-0--|
A|--2-2-2-2-2-2-2-2-0-0-0-0-0-0-0-0-4-4-4-4-4-4-4-4-2-2-2-2-2-2-2-2--|
E|--3-3-3-3-3-3-3-3-----------------2-2-2-2-2-2-2-2-3-3-3-3-3-3-3-3--|

e|--3-3-3-3-3-3-3-3------------------|
B|--3-3-3-3-3-3-3-3-2-2-2-2-2-2-2-2--|
G|--0-0-0-0-0-0-0-0-2-2-2-2-2-2-2-2--|
D|--0-0-0-0-0-0-0-0-2-2-2-2-2-2-2-2--|
A|--2-2-2-2-2-2-2-2-0-0-0-0-0-0-0-0--|
E|--3-3-3-3-3-3-3-3------------------|

Ending:

   P.M.--------------------------------------------------------------|
e|---------------------------------------------------------------------|
B|---------------------------------------------------------------------|
G|--11-11-11-12-12-12-14-14-14-14-12-12-11-11--------------------------|
D|--------------------------------------------14-14-12-12-12-14-14-14--|
A|---------------------------------------------------------------------|
E|---------------------------------------------------------------------|

e|---------------|
B|---------------|
G|---------------|
D|--12------12\--|
A|--12------12\--|
E|--10------10\--|

| /  slide up
| \  slide down
| h  hammer-on
| p  pull-off
| ~  vibrato
| +  harmonic
| x  Mute note
===============================================================================
Tap to rate this tab
 
# A B C D E F G H I J K L M N O P Q R S T U V W X Y Z