Song name
# A B C D E F G H I J K L M N O P Q R S T U V W X Y Z

Toy Dolls - Come Back Jackie tab

-----------------------------------------------------------------
		                  COME BACK JACKIE - Toy Dolls
-----------------------------------------------------------------
Tabbed by: starbreaker
Email: shurik666@inbox.ru

Tuning: standard

Bass intro:

G|-----------------------------------------------------------------------|
D|-----------------------------------------------------------------------|
A|--------------------------------------------------8-8-8-8-10-10-10-10--|
E|--8-8-8-8-8-8-8-8-8-8-8-8-8-8-8-8-6-6-6-6-6-6-6-6----------------------|

G|-----------------------------------------------------------------------|
D|-----------------------------------------------------------------------|
A|--------------------------------------------------8-8-8-8-10-10-10-10--|
E|--8-8-8-8-8-8-8-8-8-8-8-8-8-8-8-8-6-6-6-6-6-6-6-6----------------------|

G|---------------------------------------|
D|---------------------------------------|
A|--10-10-10-10-10-10-10-10-10-10-10-10--|
E|---------------------------------------|

                Guitar starts here with a pick slide...

e|-------------------------------------------------------------------|
B|--------------------------------------------------6-6-6-6-8-8-8-8--|
G|--5-5-5-5-5-5-5-5-5-5-5-5-5-5-5-5-3-3-3-3-3-3-3-3-5-5-5-5-7-7-7-7--|
D|--5-5-5-5-5-5-5-5-5-5-5-5-5-5-5-5-3-3-3-3-3-3-3-3-3-3-3-3-5-5-5-5--|
A|--3-3-3-3-3-3-3-3-3-3-3-3-3-3-3-3-1-1-1-1-1-1-1-1------------------|
E|-------------------------------------------------------------------|

e|-------------------------------------------------------------------|
B|--------------------------------------------------6-6-6-6-8-8-8-8--|
G|--5-5-5-5-5-5-5-5-5-5-5-5-5-5-5-5-3-3-3-3-3-3-3-3-5-5-5-5-7-7-7-7--|
D|--5-5-5-5-5-5-5-5-5-5-5-5-5-5-5-5-3-3-3-3-3-3-3-3-3-3-3-3-5-5-5-5--|
A|--3-3-3-3-3-3-3-3-3-3-3-3-3-3-3-3-1-1-1-1-1-1-1-1------------------|
E|-------------------------------------------------------------------|

e|----------------------------|
B|---8-8-8-8-8-8-8-8-8-8-8-8--|
G|---7-7-7-7-7-7-7-7-7-7-7-7--|
D|---5-5-5-5-5-5-5-5-5-5-5-5--|
A|----------------------------|
E|----------------------------|

Verse 1:

    Old Jackie Has Gone To Sea...
e|--------------------------------------------------------------|
B|--------------------------------------------------------------|
G|--7--------------7-----7-----9--5--------------5-----5-----5--|
D|--7--------------7-----7-----9--5--------------5-----5-----5--|
A|--5--5-5-5-5-5-5-5-5-5-5-5-5-7--3--3-3-3-3-3-3-3-3-3-3-3-3-3--|
E|--------------------------------------------------------------|
       x x x x x x   x x   x x       x x x x x x   x x   x x

e|----------------------------------------------------------------|
B|----------------------------------------------------------------|
G|--7-7-7-7-7-7-7-7-----------------5-5-5----------5-5-5----------|
D|--7-7-7-7-7-7-7-7-3-3-3-3-3-3-3-3-5-5-5--3--3-3--5-5-5--3--3-3--|
A|--5-5-5-5-5-5-5-5-3-3-3-3-3-3-3-3-3-3-3--3--3-3--3-3-3--3--3-3--|
E|------------------1-1-1-1-1-1-1-1--------1--1-1---------1--1-1--|

e|--------------------------------------------------------------|
B|--------------------------------------------------------------|
G|--7--------------7-----7-----9--5--------------5-----5-----5--|
D|--7--------------7-----7-----9--5--------------5-----5-----5--|
A|--5--5-5-5-5-5-5-5-5-5-5-5-5-7--3--3-3-3-3-3-3-3-3-3-3-3-3-3--|
E|--------------------------------------------------------------|
       x x x x x x   x x   x x       x x x x x x   x x   x x

e|-------------------------------------------------------------------|
B|-------------------------------------------------------------------|
G|--7-7-7-7-7-7-7-7-----------------5-5-5-5-5-5-5-5-5-5-5-5-5-5-5-5--|
D|--7-7-7-7-7-7-7-7-3-3-3-3-3-3-3-3-5-5-5-5-5-5-5-5-5-5-5-5-5-5-5-5--|
A|--5-5-5-5-5-5-5-5-3-3-3-3-3-3-3-3-3-3-3-3-3-3-3-3-3-3-3-3-3-3-3-3--|
E|------------------1-1-1-1-1-1-1-1----------------------------------|

Pre-chorus:

    A Secret Mission He's Been On...
e|-------------------------------------------------------------------|
B|-------------------------------------------------------------------|
G|------------------5-5-5-5-5-5-5-5-----------------5-5-5-5-4-4-4-4--|
D|--5-5-5-5-5-5-5-5-5-5-5-5-5-5-5-5-5-5-5-5-5-5-5-5-5-5-5-5-4-4-4-4--|
A|--5-5-5-5-5-5-5-5-3-3-3-3-3-3-3-3-5-5-5-5-5-5-5-5-3-3-3-3-2-2-2-2--|
E|--3-3-3-3-3-3-3-3-----------------3-3-3-3-3-3-3-3------------------|

                                                                      Pick slide
e|-----------------------------------------------------------------------------------|
B|-----------------------------------------------------------------------------------|
G|-----------------------------------------------------------------------------------|
D|--3-3-3-3-3-3-3-3-5-5-5-5-5-5-5-5-5-5-5-5-5-5-5-5-5-5-5-5-5-5-5-5-5-5-5-5-5-5-5-5--|
A|--3-3-3-3-3-3-3-3-5-5-5-5-5-5-5-5-5-5-5-5-5-5-5-5-5-5-5-5-5-5-5-5-5-5-5-5-5-5-5-5--|
E|--1-1-1-1-1-1-1-1-3-3-3-3-3-3-3-3-3-3-3-3-3-3-3-3-3-3-3-3-3-3-3-3-3-3-3-3-3-3-3-3--|

Chorus:

    Jackie's Been On A Holiday...
e|-------------------------------------------------------------------|
B|-------------------------------------------------------------------|
G|----------------------------------5-5-5-5-5-5-5-5-5-5-5-5-5-5-5-5--|
D|--7-7-7-7-7-7-7-7-7-7-7-7-7-7-7-7-5-5-5-5-5-5-5-5-5-5-5-5-5-5-5-5--|
A|--7-7-7-7-7-7-7-7-7-7-7-7-7-7-7-7-3-3-3-3-3-3-3-3-3-3-3-3-3-3-3-3--|
E|--5-5-5-5-5-5-5-5-5-5-5-5-5-5-5-5----------------------------------|

e|------------------------------------------------------------------|
B|------------------------------------------------------------------|
G|------------------5-5-5-5-5-5-5-5---------------------------------|
D|--3-3-3-3-3-3-3-3-5-5-5-5-5-5-5-5-5-------------------------------|
A|--3-3-3-3-3-3-3-3-3-3-3-3-3-3-3-3-5-------------------------------|
E|--1-1-1-1-1-1-1-1-----------------3--3-3-3-3-3-3-3-3-3-3-3-3-3-3--|
                                       x x x x x x x x x x x x x x

e|-------------------------------------------------------------------|
B|-------------------------------------------------------------------|
G|----------------------------------5-5-5-5-5-5-5-5-5-5-5-5-5-5-5-5--|
D|--7-7-7-7-7-7-7-7-7-7-7-7-7-7-7-7-5-5-5-5-5-5-5-5-5-5-5-5-5-5-5-5--|
A|--7-7-7-7-7-7-7-7-7-7-7-7-7-7-7-7-3-3-3-3-3-3-3-3-3-3-3-3-3-3-3-3--|
E|--5-5-5-5-5-5-5-5-5-5-5-5-5-5-5-5----------------------------------|

                                                             TODAY!!!
e|-------------------------------------------------------------|
B|-------------------------------------------------------------|
G|------------------5-5-5-5-5-5-5-5----------------------------|
D|--3-3-3-3-3-3-3-3-5-5-5-5-5-5-5-5-5-5-5-5-5-5-5-5-5-5-5-5-5--|
A|--3-3-3-3-3-3-3-3-3-3-3-3-3-3-3-3-5-5-5-5-5-5-5-5-5-5-5-5-5--|
E|--1-1-1-1-1-1-1-1-----------------3-3-3-3-3-3-3-3-3-3-3-3-3--|

Interlude:

Bass:

G|-----------------------------------------------------------------------|
D|-----------------------------------------------------------------------|
A|--------------------------------------------------8-8-8-8-10-10-10-10--|
E|--8-8-8-8-8-8-8-8-8-8-8-8-8-8-8-8-6-6-6-6-6-6-6-6----------------------|

G|---------------------------------------|
D|---------------------------------------|
A|--10-10-10-10-10-10-10-10-10-10-10-10--|
E|---------------------------------------|

                Pick slide, then:

e|-------------------------------------------------------------------|
B|--------------------------------------------------6-6-6-6-8-8-8-8--|
G|--5-5-5-5-5-5-5-5-5-5-5-5-5-5-5-5-3-3-3-3-3-3-3-3-5-5-5-5-7-7-7-7--|
D|--5-5-5-5-5-5-5-5-5-5-5-5-5-5-5-5-3-3-3-3-3-3-3-3-3-3-3-3-5-5-5-5--|
A|--3-3-3-3-3-3-3-3-3-3-3-3-3-3-3-3-1-1-1-1-1-1-1-1------------------|
E|-------------------------------------------------------------------|

e|----------------------------|
B|---8-8-8-8-8-8-8-8-8-8-8-8--|
G|---7-7-7-7-7-7-7-7-7-7-7-7--|
D|---5-5-5-5-5-5-5-5-5-5-5-5--|
A|----------------------------|
E|----------------------------|

Verse 2:

    Since Jackie Went To Sea...
e|--------------------------------------------------------------|
B|--------------------------------------------------------------|
G|--7--------------7-----7-----9--5--------------5-----5-----5--|
D|--7--------------7-----7-----9--5--------------5-----5-----5--|
A|--5--5-5-5-5-5-5-5-5-5-5-5-5-7--3--3-3-3-3-3-3-3-3-3-3-3-3-3--|
E|--------------------------------------------------------------|
       x x x x x x   x x   x x       x x x x x x   x x   x x

e|----------------------------------------------------------------|
B|----------------------------------------------------------------|
G|--7-7-7-7-7-7-7-7-----------------5-5-5----------5-5-5----------|
D|--7-7-7-7-7-7-7-7-3-3-3-3-3-3-3-3-5-5-5--3--3-3--5-5-5--3--3-3--|
A|--5-5-5-5-5-5-5-5-3-3-3-3-3-3-3-3-3-3-3--3--3-3--3-3-3--3--3-3--|
E|------------------1-1-1-1-1-1-1-1--------1--1-1---------1--1-1--|

e|--------------------------------------------------------------|
B|--------------------------------------------------------------|
G|--7--------------7-----7-----9--5--------------5-----5-----5--|
D|--7--------------7-----7-----9--5--------------5-----5-----5--|
A|--5--5-5-5-5-5-5-5-5-5-5-5-5-7--3--3-3-3-3-3-3-3-3-3-3-3-3-3--|
E|--------------------------------------------------------------|
       x x x x x x   x x   x x       x x x x x x   x x   x x

e|-------------------------------------------------------------------|
B|-------------------------------------------------------------------|
G|--7-7-7-7-7-7-7-7-----------------5-5-5-5-5-5-5-5-5-5-5-5-5-5-5-5--|
D|--7-7-7-7-7-7-7-7-3-3-3-3-3-3-3-3-5-5-5-5-5-5-5-5-5-5-5-5-5-5-5-5--|
A|--5-5-5-5-5-5-5-5-3-3-3-3-3-3-3-3-3-3-3-3-3-3-3-3-3-3-3-3-3-3-3-3--|
E|------------------1-1-1-1-1-1-1-1----------------------------------|

Pre-chorus:

   A Secret Mission He's Been On...
e|-------------------------------------------------------------------|
B|-------------------------------------------------------------------|
G|------------------5-5-5-5-5-5-5-5-----------------5-5-5-5-4-4-4-4--|
D|--5-5-5-5-5-5-5-5-5-5-5-5-5-5-5-5-5-5-5-5-5-5-5-5-5-5-5-5-4-4-4-4--|
A|--5-5-5-5-5-5-5-5-3-3-3-3-3-3-3-3-5-5-5-5-5-5-5-5-3-3-3-3-2-2-2-2--|
E|--3-3-3-3-3-3-3-3-----------------3-3-3-3-3-3-3-3------------------|

                                                                      Pick slide
e|-----------------------------------------------------------------------------------|
B|-----------------------------------------------------------------------------------|
G|-----------------------------------------------------------------------------------|
D|--3-3-3-3-3-3-3-3-5-5-5-5-5-5-5-5-5-5-5-5-5-5-5-5-5-5-5-5-5-5-5-5-5-5-5-5-5-5-5-5--|
A|--3-3-3-3-3-3-3-3-5-5-5-5-5-5-5-5-5-5-5-5-5-5-5-5-5-5-5-5-5-5-5-5-5-5-5-5-5-5-5-5--|
E|--1-1-1-1-1-1-1-1-3-3-3-3-3-3-3-3-3-3-3-3-3-3-3-3-3-3-3-3-3-3-3-3-3-3-3-3-3-3-3-3--|

Chorus:

    Jackie's Been On A Holiday...
e|-------------------------------------------------------------------|
B|-------------------------------------------------------------------|
G|----------------------------------5-5-5-5-5-5-5-5-5-5-5-5-5-5-5-5--|
D|--7-7-7-7-7-7-7-7-7-7-7-7-7-7-7-7-5-5-5-5-5-5-5-5-5-5-5-5-5-5-5-5--|
A|--7-7-7-7-7-7-7-7-7-7-7-7-7-7-7-7-3-3-3-3-3-3-3-3-3-3-3-3-3-3-3-3--|
E|--5-5-5-5-5-5-5-5-5-5-5-5-5-5-5-5----------------------------------|

e|------------------------------------------------------------------|
B|------------------------------------------------------------------|
G|------------------5-5-5-5-5-5-5-5---------------------------------|
D|--3-3-3-3-3-3-3-3-5-5-5-5-5-5-5-5-5-------------------------------|
A|--3-3-3-3-3-3-3-3-3-3-3-3-3-3-3-3-5-------------------------------|
E|--1-1-1-1-1-1-1-1-----------------3--3-3-3-3-3-3-3-3-3-3-3-3-3-3--|
                                       x x x x x x x x x x x x x x

e|-------------------------------------------------------------------|
B|-------------------------------------------------------------------|
G|----------------------------------5-5-5-5-5-5-5-5-5-5-5-5-5-5-5-5--|
D|--7-7-7-7-7-7-7-7-7-7-7-7-7-7-7-7-5-5-5-5-5-5-5-5-5-5-5-5-5-5-5-5--|
A|--7-7-7-7-7-7-7-7-7-7-7-7-7-7-7-7-3-3-3-3-3-3-3-3-3-3-3-3-3-3-3-3--|
E|--5-5-5-5-5-5-5-5-5-5-5-5-5-5-5-5----------------------------------|
                                                            
e|-------------------------------------------------------------------|
B|-------------------------------------------------------------------|
G|------------------5-5-5-5-5-5-5-5----------------------------------|
D|--3-3-3-3-3-3-3-3-5-5-5-5-5-5-5-5-5-5-5-5-5-5-5-5-5-5-5-5-5-5-5-5--|
A|--3-3-3-3-3-3-3-3-3-3-3-3-3-3-3-3-5-5-5-5-5-5-5-5-5-5-5-5-5-5-5-5--|
E|--1-1-1-1-1-1-1-1-----------------3-3-3-3-3-3-3-3-3-3-3-3-3-3-3-3--|

   TODAY!!!
e|--------------------|
B|--------------------|
G|--------------------|
D|--3--3--3--3--3--3--|
A|--3--3--3--3--3--3--|
E|--1--1--1--1--1--1--|

Solo:

e|------------------------------------------------------------------|
B|--------------------------------6---6/10--13--10--13-10-----8-8~--|
G|-----------------5--4--5-5-6-7---------------------------9--------|
D|-------------2-5--------------------------------------------------|
A|--8\---3~--3------------------------------------------------------|
E|------------------------------------------------------------------|

e|--------------------------------------------------------------|
B|--8h10p8-6h8p6-5h6p5-3h5p3------8/10--8----------8~---8-------|
G|---------------------------5~------------9----9---------------|
D|-------------------------------------------10------------10\--|
A|--------------------------------------------------------------|
E|--------------------------------------------------------------|

Rhythm for the solo:

e|-------------------------------------------------------------------|
B|--------------------------------------------------6-6-6-6-6-6-6-6--|
G|--5-5-5-5-5-5-5-5-5-5-5-5-5-5-5-5-7-7-7-7-7-7-7-7-5-5-5-5-5-5-5-5--|
D|--5-5-5-5-5-5-5-5-5-5-5-5-5-5-5-5-7-7-7-7-7-7-7-7-3-3-3-3-3-3-3-3--|
A|--3-3-3-3-3-3-3-3-3-3-3-3-3-3-3-3-5-5-5-5-5-5-5-5------------------|
E|-------------------------------------------------------------------|

e|-------------------------------------------------------------------|
B|-------------------------------------------------------------------|
G|--5-5-5-5-5-5-5-5-5-5-5-5-5-5-5-5-----------------5-5-5-5-5-5-5-5--|
D|--5-5-5-5-5-5-5-5-5-5-5-5-5-5-5-5-3-3-3-3-3-3-3-3-5-5-5-5-5-5-5-5--|
A|--3-3-3-3-3-3-3-3-3-3-3-3-3-3-3-3-3-3-3-3-3-3-3-3-3-3-3-3-3-3-3-3--|
E|----------------------------------1-1-1-1-1-1-1-1------------------|

e|-------------------------------------------------------------------|
B|-------------------------------------------------------------------|
G|----------------------------------5-5-5-5-5-5-5-5-5-5-5-5-5-5-5-5--|
D|--5-5-5-5-5-5-5-5-5-5-5-5-5-5-5-5-5-5-5-5-5-5-5-5-5-5-5-5-5-5-5-5--|
A|--5-5-5-5-5-5-5-5-5-5-5-5-5-5-5-5-3-3-3-3-3-3-3-3-3-3-3-3-3-3-3-3--|
E|--3-3-3-3-3-3-3-3-3-3-3-3-3-3-3-3----------------------------------|

Pre-chorus:

   A Secret Mission He's Been On...
e|-------------------------------------------------------------------|
B|-------------------------------------------------------------------|
G|------------------5-5-5-5-5-5-5-5-----------------5-5-5-5-4-4-4-4--|
D|--5-5-5-5-5-5-5-5-5-5-5-5-5-5-5-5-5-5-5-5-5-5-5-5-5-5-5-5-4-4-4-4--|
A|--5-5-5-5-5-5-5-5-3-3-3-3-3-3-3-3-5-5-5-5-5-5-5-5-3-3-3-3-2-2-2-2--|
E|--3-3-3-3-3-3-3-3-----------------3-3-3-3-3-3-3-3------------------|

e|-----------------------------------------------------------------------------------|
B|-----------------------------------------------------------------------------------|
G|-----------------------------------------------------------------------------------|
D|--3-3-3-3-3-3-3-3-5-5-5-5-5-5-5-5-5-5-5-5-5-5-5-5-5-5-5-5-5-5-5-5-5-5-5-5-5-5-5-5--|
A|--3-3-3-3-3-3-3-3-5-5-5-5-5-5-5-5-5-5-5-5-5-5-5-5-5-5-5-5-5-5-5-5-5-5-5-5-5-5-5-5--|
E|--1-1-1-1-1-1-1-1-3-3-3-3-3-3-3-3-3-3-3-3-3-3-3-3-3-3-3-3-3-3-3-3-3-3-3-3-3-3-3-3--|

Chorus:

    Jackie's Been On A Holiday...
e|-------------------------------------------------------------------|
B|-------------------------------------------------------------------|
G|----------------------------------5-5-5-5-5-5-5-5-5-5-5-5-5-5-5-5--|
D|--7-7-7-7-7-7-7-7-7-7-7-7-7-7-7-7-5-5-5-5-5-5-5-5-5-5-5-5-5-5-5-5--|
A|--7-7-7-7-7-7-7-7-7-7-7-7-7-7-7-7-3-3-3-3-3-3-3-3-3-3-3-3-3-3-3-3--|
E|--5-5-5-5-5-5-5-5-5-5-5-5-5-5-5-5----------------------------------|

e|------------------------------------------------------------------|
B|------------------------------------------------------------------|
G|------------------5-5-5-5-5-5-5-5---------------------------------|
D|--3-3-3-3-3-3-3-3-5-5-5-5-5-5-5-5-5-------------------------------|
A|--3-3-3-3-3-3-3-3-3-3-3-3-3-3-3-3-5-------------------------------|
E|--1-1-1-1-1-1-1-1-----------------3--3-3-3-3-3-3-3-3-3-3-3-3-3-3--|
                                       x x x x x x x x x x x x x x

e|-------------------------------------------------------------------|
B|-------------------------------------------------------------------|
G|----------------------------------5-5-5-5-5-5-5-5-5-5-5-5-5-5-5-5--|
D|--7-7-7-7-7-7-7-7-7-7-7-7-7-7-7-7-5-5-5-5-5-5-5-5-5-5-5-5-5-5-5-5--|
A|--7-7-7-7-7-7-7-7-7-7-7-7-7-7-7-7-3-3-3-3-3-3-3-3-3-3-3-3-3-3-3-3--|
E|--5-5-5-5-5-5-5-5-5-5-5-5-5-5-5-5----------------------------------|
                                                           
e|---------------------------------------------|
B|---------------------------------------------|
G|------------------5-5-5-5-5-5-5-5------5-----|
D|--3-3-3-3-3-3-3-3-5-5-5-5-5-5-5-5-3----5-----|
A|--3-3-3-3-3-3-3-3-3-3-3-3-3-3-3-3-3----3-----|
E|--1-1-1-1-1-1-1-1-----------------1----------|

e|-------------------------------------------------------------------|
B|-------------------------------------------------------------------|
G|------------------5-5-5-5-5-5-5-5----------------------------------|
D|--3-3-3-3-3-3-3-3-5-5-5-5-5-5-5-5-5-5-5-5-5-5-5-5-5-5-5-5-5-5-5-5--|
A|--3-3-3-3-3-3-3-3-3-3-3-3-3-3-3-3-5-5-5-5-5-5-5-5-5-5-5-5-5-5-5-5--|
E|--1-1-1-1-1-1-1-1-----------------3-3-3-3-3-3-3-3-3-3-3-3-3-3-3-3--|

e|---------------------------|
B|---------------------------|
G|--5---------5-5-5-5----5\--|
D|--5----3----5-5-5-5----5\--|
A|--3----3----3-3-3-3----3\--|
E|-------1-------------------|

| /  slide up
| \  slide down
| h  hammer-on
| p  pull-off
| ~  vibrato
| +  harmonic
| x  Mute note
===============================================================================
Tap to rate this tab
 
# A B C D E F G H I J K L M N O P Q R S T U V W X Y Z