Song name
# A B C D E F G H I J K L M N O P Q R S T U V W X Y Z

Toy Dolls - Olga I Cannot tab

olga i cannot


the toy dolls


TRANSCRIBED BY RUDY GUZMAN


guzman_84@hotmail.com




                                               
e:----------------------------------------------------------|
B:----------------------------------------------------------|
G:----------------------------------------------------------|
D:----------------------------------------------------------|
A:-8--8-8--8-8--8-8--8-8--8-8--8-8--8-8--8-8--8-8--8-8--8-8-|
E:-6--6-6--6-6--6-6--6-6--6-6--6-6--6-6--6-6--6-6--6-6--6-6-|

   i first saw kendra at the...
e:----------------------------------------------|
B:----------------------------------------------|
G:----------------------------------------------|
D:-------------------10--10-10--10-10--10-10-10-|
A:-8--8-8--8-8--8-8--8---8--8---8--8---8--8--8--|
E:-6--6-6--6-6--6-6-----------------------------|


e:---------------------------------------|
B:---------------------------------------|
G:---------------------------------------|
D:---------------------------------------|
A:-8--8-8--8-8--8-8--8-8--8-8--8-8--8-8--|
E:-6--6-6--6-6--6-6--6-6--6-6--6-6--6-6--|


e:----------------------------------------------|
B:----------------------------------------------|
G:----------------------------------------------|
D:-------------------10--10-10--10-10--10-10-10-|
A:-8--8-8--8-8--8-8--8---8--8---8--8---8--8--8--|
E:-6--6-6--6-6--6-6-----------------------------|


e:---------------------------------------|
B:---------------------------------------|
G:---------------------------------------|
D:---------------------------------------|
A:-8--8-8--8-8--8-8--8-8--8-8--8-8--8-8--|
E:-6--6-6--6-6--6-6--6-6--6-6--6-6--6-6--|


e:------------------------------------------------------------------|
B:------------------------------------------------------------------|
G:------------------------------------------------------------------|
D:-8--8-8--8-8--8-8-8--------------------10--10-10--10-10--10-10-10-|
A:-6--6-6--6-6--6-6-6--8--8-8--8-8--8-8--8---8--8---8--8---8--8--8--|
E:---------------------6--6-6--6-6--6-6-----------------------------|

e:----------------------------------------------------------|
B:----------------------------------------------------------|
G:----------------------------------------------------------|
D:---------------------8--8-8--8-8--8-8---------------------|
A:-8--8-8--8-8--8-8-8--6--6-6--6-6--6-6--8--8-8--8-8--8-8-8-|
E:-6--6-6--6-6--6-6-6--------------------6--6-6--6-6--6-6-6-|

e:--------------------------------------|
B:--------------------------------------|
G:--------------------------------------|
D:-10--10-10--10-10--10-10-10-10-10--10-|
A:-8---8--8---8--8---8--8--8--8--8---8--|
E:--------------------------------------|

   ahh olga i cannot...
e:-----------------------------------------------------------------------|
B:-----------------------------------------------------------------------|
G:-----------------------------------------------------------------------|
D:---------------------8--8-8--8-8--8-8----------------------------------|
A:-8--8-8--8-8--8-8-8--6--6-6--6-6--6-6--8--8-8--8-8--8-8--8-8--8-8--8-8-|
E:-6--6-6--6-6--6-6-6--------------------6--6-6--6-6--6-6--6-6--6-6--6-6-|

e:----------------------------------|
B:----------------------------------|
G:----------------------------------|
D:-10--10-10--10-10--10-10-10-10-10-|
A:-8---8--8---8--8---8--8--8--8--8--|
E:----------------------------------|

e:---------------------------------------|
B:---------------------------------------|
G:---------------------------------------|
D:---------------------------------------|
A:-8--8-8--8-8--8-8--8-8--8-8--8-8--8-8--|
E:-6--6-6--6-6--6-6--6-6--6-6--6-6--6-6--|

e:---------------------------------|
B:---------------------------------|
G:---------------------------------|
D:-8--8-8--8--8-8------------------|
A:-6--6-6--6--6-6--8--8-8--8--8-8--|
E:-----------------6--6-6--6--6-6--|

e:-----------------------------------------------------------|
B:-----------------------------------------------------------|
G:-----------------------------------------------------------|
D:-8--8-8--8--8-8------------------10--10-10--10-10-10-10-10-|
A:-6--6-6--6--6-6--8--8-8--8--8-8--8---8--8---8--8--8--8--8--|
E:-----------------6--6-6--6--6-6----------------------------|


e:-------------------------------------------------------------------------|
B:-------------------------------------------------------------------------|
G:-------------------------------------------------------------------------|
D:-------------------------------------------------------------------------|
A:-8--8-8--8-8--8-8--8-8--8-8--8-8--8-8--8-8--9-10--10-10--10-10--10-10-10-|
E:-6--6-6--6-6--6-6--6-6--6-6--6-6--6-6--6-6--7-8---8--8---8--8---8--8--8--|


e:-------------------|
B:-------------------|
G:-------------------|
D:-------------------|
A:-9--9-9--9-9--9-9--|
E:-7--7-7--7-7--7-7--|

   i was really depressed what could i do...
e:----------------------------------------------|
B:----------------------------------------------|
G:----------------------------------------------|
D:-------------------11--11-11--11-11--11-11-11-|
A:-9--9-9--9-9--9-9--9---9--9---9--9---9--9--9--|
E:-7--7-7--7-7--7-7-----------------------------|


e:---------------------------------------|
B:---------------------------------------|
G:---------------------------------------|
D:---------------------------------------|
A:-9--9-9--9-9--9-9--9-9--9-9--9-9--9-9--|
E:-7--7-7--7-7--7-7--7-7--7-7--7-7--7-7--|


e:----------------------------------------------|
B:----------------------------------------------|
G:----------------------------------------------|
D:-------------------11--11-11--11-11--11-11-11-|
A:-9--9-9--9-9--9-9--9---9--9---9--9---9--9--9--|
E:-7--7-7--7-7--7-7-----------------------------|


e:---------------------------------------|
B:---------------------------------------|
G:---------------------------------------|
D:---------------------------------------|
A:-9--9-9--9-9--9-9--9-9--9-9--9-9--9-9--|
E:-7--7-7--7-7--7-7--7-7--7-7--7-7--7-7--|


e:---------------------------------------|
B:---------------------------------------|
G:---------------------------------------|
D:-9--9-9--9-9--9-9-9--------------------|
A:-7--7-7--7-7--7-7-7--9--9-9--9-9--9-9--|
E:---------------------7--7-7--7-7--7-7--|

e:----------------------------------------------------------|
B:----------------------------------------------------------|
G:----------------------------------------------------------|
D:---------------------9--9-9--9-9--9-9---------------------|
A:-9--9-9--9-9--9-9-9--7--7-7--7-7--7-7--9--9-9--9-9--9-9-9-|
E:-7--7-7--7-7--7-7-7--------------------7--7-7--7-7--7-7-7-|

                                     ah
e:--------------------------------------|
B:--------------------------------------|
G:--------------------------------------|
D:-11--11-11--11-11--11-11-11-11-11--11-|
A:-9---9--9---9--9---9--9--9--9--9---9--|
E:--------------------------------------|


   olga i cannot...
e:-----------------------------------------------------------------------|
B:-----------------------------------------------------------------------|
G:-----------------------------------------------------------------------|
D:---------------------9--9-9--9-9--9-9----------------------------------|
A:-9--9-9--9-9--9-9-9--7--7-7--7-7--7-7--9--9-9--9-9--9-9--9-9--9-9--9-9-|
E:-7--7-7--7-7--7-7-7--------------------7--7-7--7-7--7-7--7-7--7-7--7-7-|


e:-----------------------------------|
B:-----------------------------------|
G:-----------------------------------|
D:-11--11-11--11-11--11-11-11-11-11--|
A:-9---9--9---9--9---9--9--9--9--9---|
E:-----------------------------------|

e:---------------------------------------|
B:---------------------------------------|
G:---------------------------------------|
D:---------------------------------------|
A:-9--9-9--9-9--9-9--9-9--9-9--9-9--9-9--|
E:-7--7-7--7-7--7-7--7-7--7-7--7-7--7-7--|

e:---------------------------------|
B:---------------------------------|
G:---------------------------------|
D:-9--9-9--9--9-9------------------|
A:-7--7-7--7--7-7--9--9-9--9--9-9--|
E:-----------------7--7-7--7--7-7--|

e:-----------------------------------------------------------|
B:-----------------------------------------------------------|
G:-----------------------------------------------------------|
D:-9--9-9--9--9-9------------------11--11-11--11-11-11-11-11-|
A:-7--7-7--7--7-7--9--9-9--9--9-9--9---9--9---9--9--9--9--9--|
E:-----------------7--7-7--7--7-7----------------------------|

   i cannot i cannot...
e:----------------------------------------------------------|
B:----------------------------------------------------------|
G:----------------------------------------------------------|
D:----------------------------------------------------------|
A:-9--9-9--9-9--9-9--9-9--9-9--9-9--9-9--9-9--9-9--9-9--9-9-|
E:-7--7-7--7-7--7-7--7-7--7-7--7-7--7-7--7-7--7-7--7-7--7-7-|

  i`m sorry but i have to run
e:------------------------------------------------------------|
B:------------------------------------------------------------|
G:------------------------------------------------------------|
D:-----------------6---------------------------6--------4-----|
A:-6---------------4--------------6------------4--------2-----|
E:-4------------------------------4---------------------------|

e:---------------------------------------|
B:---------------------------------------|
G:---------------------------------------|
D:-8---9-----11--11-11-11-11-11-11-11-11-|
A:-6---7-----9---9--9--9--9--9--9--9--9--|
E:---------------------------------------|


e:--------------------------------------------------------------------|
B:--------------------------------------------------------------------|
G:--------------------------------------------------------------------|
D:--------------------------------------------------------------------|
A:-9--9-9--9-9--9-9--9-9--9-9--9-9--9-9--9-9--10--10-10--10-10--10-10-|
E:-7--7-7--7-7--7-7--7-7--7-7--7-7--7-7--7-7--8---8--8---8--8---8--8--|


e:---------------------------------|
B:---------------------------------|
G:---------------------------------|
D:---------------------------------|
A:-10--10-10--10-10--10-10--10-10--|
E:-8---8--8---8--8---8--8---8--8---|


   i call kendra another 50 times on the phone...
e:---------------------------------------------------|
B:---------------------------------------------------|
G:---------------------------------------------------|
D:--------------------------12--12-12--12-12--12-12--|
A:-10--10-10--10-10--10-10--10--10-10--10-10--10-10--|
E:-8---8--8---8--8---8--8----------------------------|


e:----------------------------------------------------|
B:----------------------------------------------------|
G:----------------------------------------------------|
D:----------------------------------------------------|
A:-10--10-10--10-10--10-10--10-10-10-10--10-10--10-10-|
E:-8---8--8---8--8---8--8---8--8--8--8---8--8---8--8--|


e:---------------------------------------------------|
B:---------------------------------------------------|
G:---------------------------------------------------|
D:--------------------------12--12-12--12-12--12-12--|
A:-10--10-10--10-10--10-10--10--10-10--10-10--10-10--|
E:-8---8--8---8--8---8--8----------------------------|


e:----------------------------------------------------|
B:----------------------------------------------------|
G:----------------------------------------------------|
D:----------------------------------------------------|
A:-10--10-10--10-10--10-10--10-10-10-10--10-10--10-10-|
E:-8---8--8---8--8---8--8---8--8--8--8---8--8---8--8--|


e:---------------------------------------------------|
B:---------------------------------------------------|
G:---------------------------------------------------|
D:-10--10-10--10-10--10-10-10------------------------|
A:-8---8--8---8--8---8--8--8---10--10-10--10-10--10--|
E:-----------------------------8---8--8---8--8---8---|

e:----------------------------------------------------------|
B:----------------------------------------------------------|
G:----------------------------------------------------------|
D:--------------------10--10-10-----------------------------|
A:-10--10-10--10-10---8---8--8----------10--10--------------|
E:-8---8--8---8--8----------------------8---8---------------|

                                                                        ah
e:-------------------------------------------------------------------------|
B:-------------------------------------------------------------------------|
G:-------------------------------------------------------------------------|
D:-12----------------------------12-12--12-12--12-12--12-12--12-12--12-12--|
A:-10----------------------------10-10--10-10--10-10--10-10--10-10--10-10--|
E:-------------------------------------------------------------------------|


   olga i cannot...
e:-----------------------------------------------------------------------------------------------|
B:-----------------------------------------------------------------------------------------------|
G:-----------------------------------------------------------------------------------------------|
D:--------------------------10--10-10--10-10--10-10----------------------------------------------|
A:-10--10-10--10-10--10-10--8---8--8---8--8---8--8--10--10-10--10-10--10-10--10-10--10-10--10-10-|
E:-8---8--8---8--8---8--8---------------------------8---8--8---8--8---8--8---8--8---8--8---8--8--|


e:-----------------------------------|
B:-----------------------------------|
G:-----------------------------------|
D:-12--12-12--12-12--12-12-12-12-12--|
A:-10--10-10--10-10--10-10-10-10-10--|
E:-----------------------------------|

e:----------------------------------------------|
B:----------------------------------------------|
G:----------------------------------------------|
D:----------------------------------------------|
A:-10--10-10--10-10--10-10--10-10--10-10--10-10-|
E:-8---8--8---8--8---8--8---8--8---8--8---8--8--|


e:--------------------------------------------|
B:--------------------------------------------|
G:--------------------------------------------|
D:-10--10-10--10--10-10-----------------------|
A:-8---8--8---8---8--8---10--10-10--10--10-10-|
E:-----------------------8---8--8---8---8--8--|


e:-----------------------------------------------------------------------|
B:-----------------------------------------------------------------------|
G:-----------------------------------------------------------------------|
D:-10--10-10--10--10-10------------------------12--12-12--12-12-12-12-12-|
A:-8---8--8---8---8--8---10--10-10--10--10-10--10--10-10--10-10-10-10-10-|
E:-----------------------8---8--8---8---8--8-----------------------------|


e:---------------------------------|
B:---------------------------------|
G:---------------------------------|
D:---------------------------------|
A:-10--10-10--10-10--10-10--10-10--|
E:-8---8--8---8--8---8--8---8--8---|


e:--------------------------------------------|
B:--------------------------------------------|
G:--------------------------------------------|
D:-10--10-10--10--10-10-----------------------|
A:-8---8--8---8---8--8---10--10-10--10--10-10-|
E:-----------------------8---8--8---8---8--8--|


e:-----------------------------------------------------------------------|
B:-----------------------------------------------------------------------|
G:-----------------------------------------------------------------------|
D:-10--10-10--10--10-10------------------------12--12-12--12-12-12-12-12-|
A:-8---8--8---8---8--8---10--10-10--10--10-10--10--10-10--10-10-10-10-10-|
E:-----------------------8---8--8---8---8--8-----------------------------|


e:------------------------------------------|
B:------------------------------------------|
G:------------------------------------------|
D:-10--10-10--10-10-10-10-10-10-10-10-10-10-|
A:-8---8--8---8--8--8--8--8--8--8--8--8--8--|
E:------------------------------------------|

e:------------------------------------------------------------|
B:------------------------------------------------------------|
G:------------------------------------------------------------|
D:-----9--12--10--10--10--------------------------------------|
A:-10--7--10--8---8---8----10-----10\-------------------------|
E:-8-----------------------8------8-\-------------------------|


hillo son mex

25/08/11
Tap to rate this tab
 
# A B C D E F G H I J K L M N O P Q R S T U V W X Y Z