Song name
# A B C D E F G H I J K L M N O P Q R S T U V W X Y Z

Toy Dolls - Glenda And The Test Tube Baby chords

Highlighted       Show chord diagrams
-------------------------------------------------------------------------------
	         GLENDA AND THE TEST TUBE BABY - Toy Dolls
-------------------------------------------------------------------------------
Tabbed by: starbreaker
Email: shurik666@inbox.ru

Tuning: standard

Chords used in the song:

     G  D  Em  B  Bm  G5  B5 C5 D5 G# C# D# Fm C Cm  G#5 C#5 D#5
e|---3--2--0---2--2----------------4--4--6--1--3--3--------------|
B|---3--3--0---4--3----------------4--6--8--1--5--4--------------|
G|---0--2--0---4--4-------4--5--7--5--6--8--1--5--5------6---8---|
D|---0--0--2---4--4----5--4--5--7--6--6--8--3--5--5--6---6---8---|
A|---2-----2---2--2----5--2--3--5--6--4--6--3--3--3--6---4---6---|
E|---3-----0-----------3-----------4--------1--------4-----------|

Intro:

| G  | D  | Em | B |
| Em | Bm | D  | D |
| G  | D  | Em | B |
| Em | Bm | D  | D |

G5                             B5
Things Were Looking Gloomy And Glenda She Was Sad
C5                      G5    D5
Kevin Had Been Out With Carol Sands
    G5                    
But Glenda She Though Surely
B5                       C5      D5
It Can't Be That Bad, If I Had A Baby

Chorus:

| G  | D  | Em | B |
| Em | Bm | D  | D |
| G  | D  | Em | B |
| Em | Bm | D  | D |

G5                       B5
Glenda Went Round To The Doctors The Next Day
C5                      G5            D5  
You Can't Have A Baby, That's What He Said
G5                           B5
Glenda Did Not Give Up She's Got This Book To Read
   C5                        D5
On How To Have A Test Tube Baby

Chorus:  

| G  | D  | Em | B |
| Em | Bm | D  | D |
| G  | D  | Em | B |
| Em | Bm | D  | D |

Chords for the solo:

| G# | G# | C# | D# |
| G# | G# | C# | D# | D# |

Solo:
                               P.M.------------|
e|----------------------------------------------6-----------|
B|------------------------------9---9---9---9-----9-8-6-----|
G|----------5---5-6-8-8b10r8-8----8---8---8---8---------8~--|
D|--2/6-6-6---6---------------------------------------------|
A|----------------------------------------------------------|
E|----------------------------------------------------------|


e|-----------------------------------------16----16----16-------16-18~--|
B|-------------13----13-14-16-16b18r16-16-----16----16----16-20---------|
G|--6/13-13-13----13----------------------------------------------------|
D|----------------------------------------------------------------------|
A|----------------------------------------------------------------------|
E|----------------------------------------------------------------------|

G#5                            C5
Glenda's Dad Had Just Died And She Was Unhappy
   C#5                   G#5 D#5
If Only She Could Have A Baby
   G#5                   C5
So To The Disapproval Of Kevin And His Mam
    C#5               D#5
She Signed Up For A Baby

Chorus (x4):

| G# | D# | Fm | C  |
| Fm | Cm | D# | D# | 

Ending:

G# G# G# C# C# C# G#
Tap to rate this tab
# A B C D E F G H I J K L M N O P Q R S T U V W X Y Z