Song name
# A B C D E F G H I J K L M N O P Q R S T U V W X Y Z

Toy Dolls - Rupert The Bear tab

Tabbed by: Tijn Knaapen
Song by: The Toy Dolls
From the album: Singles 83/84

INTRO
E|----------------------------------------------------------------|
B|--0--------------1--------3p1--0--------------1--------3p1--0~--|
G|-----0--------0--------2----------0--------0--------2-----------|
D|--------0--2--------4----------------0--2--------4--------------|
A|----------------------------------------------------------------|
E|----------------------------------------------------------------|

VERSE:
E|------------------------------|
B|------------------------------|
G|-------5577-------------------|
D|--5555-5577-x3-end-on-5555555-|
A|--5555-3355-----------5555555-|
E|--3333----------------3333333-|

PRE-CHORUS
E|------------------------------------------|
B|------------------------------------------|
G|-------8888-------------8888-777777777777-|
D|--8888-8888-8878---8888-8888-777777777777-|
A|--8888-6666-8878---8888-6666-555555555555-|
E|--6666------6656---6666-------------------|

CHORUS
E|-----------------------------------------------------|
B|-----------------------------------------------------|
G|-------5555------7777--------5555------7777777777777-|
D|--5555-5555-5555-7777---5555-5555-5555-7777777777777-|
A|--5555-3333-5555-5555---5555-3333-5555-5555555555555-|
E|--3333------3333--------3333------3333---------------|

Then play it once again and after that comes this:

BRIDGE
E|--------------------------------------------------------------------------------|
B|--12------------------13----------15p14---12------------------13----------15p14-|
G|------12----------12----------14--------------12----------12----------14--------|
D|----------12--14----------16----------------------12--14----------16------------|
A|--------------------------------------------------------------------------------|
E|--------------------------------------------------------------------------------|

And then play the whole song (except the bridge) again

Enjoy!
Tap to rate this tab
# A B C D E F G H I J K L M N O P Q R S T U V W X Y Z