Song name
# A B C D E F G H I J K L M N O P Q R S T U V W X Y Z

Toy Dolls - Dig That Groove Baby tab

Dig That Groove Baby – The Toy Dolls

Tuning: Standard

Intro:
e|-----------------------------------------------------------|
B|------------------------------------------2222222222-------| 
G|--9999999999---------7777777777777--------2222222222-------|
D|--9999999999---------7777777777777--------2222222222-------|
A|--7777777777---------5555555555555--------0000000000-------|
E|-----------------------------------------------------------|

This Just repeated Uber fast as many times as needed:
e|-----------------------------------------------------------|
B|-----------------------------------------------------------|
G|-----------------------------------------------------------|
D|-----------------------------------------------------------|
A|-----------------------------------------------------------|
E|----5\4/5\4/5\4/5\4/5\4/5\4/5------------------------------|

You get the idea
                                        
Then into main riff:                       P P P P P P P
e|-----------------------------------------------------------|
B|-----------------------------------------------------------|
G|--22-----------22-----------22-----------------5-4------1--|
D|--22----0-1-2--22----0-1-2--22----0-1-2--7-6-------5-4--2--|
A|--00--4--------00--4--------00--4------------7----------2--|
E|--------------------------------------------------------0--|

And That’s it! Into The Song! Comments welcome

Jake
Tap to rate this tab
# A B C D E F G H I J K L M N O P Q R S T U V W X Y Z