Song name
# A B C D E F G H I J K L M N O P Q R S T U V W X Y Z

Toy Dolls - Bless You My Son tab

Help us improve GuitareTab! Take a short survey!
TOY DOLLS - BLESS YOU MY SON INTRO !!!


           |palm mute |
e|-----------------------|
B|-4-----2--2-2-2-2-2-2--|
G|-5-6---2--2-2-2-2-2-2--|
D|---7---2--2-2-2-2-2-2--|
A|-----------------------|
E|-----------------------| 
            |palm mute |

           |palm mute |
e|-----------------------|
B|-4-----2--2-2-2-2-2-2--|
G|-5-6---2--2-2-2-2-2-2--|
D|---7---2--2-2-2-2-2-2--|
A|-----------------------|
E|-----------------------| 
            |palm mute |




that's it, thanx
Related for Bless You My Son tab