Song name
# A B C D E F G H I J K L M N O P Q R S T U V W X Y Z

Toy Dolls - Tocatta In Dm tab

Author/Artist: Toy Dolls
Title: Toccata
Album: Absurditties
Transcribed by: Xero-P

--------------------1---------------1--------------------11111111111-11-1-----|
--------------------3---------------3--------------------33333333333-33-3-----|
------v-------------2---------------2--------------------22222222222-22-2-----|
--7\5/7--5\3\2-0----0-7\5/7--2-3----0--------------------00000000000-00-0-----|
-----------------4--0-----v------4--0----------------54--00000000000-00-0-----|
-----------------------------------------5\3/5-3\1\0--------------------------|


-----------------------------------------------------|------------------------|
---------------------------------------------^-------|------------------------|
-------------------0---0---0----023-023-023-02-------|------------------------|
---02--02--02--0-23--23--23--23----------------------|------------------------|
--4---4---4---4--------------------------------------|------------------------|
-----------------------------------------------------|------------------------|
  xxx xxx xxx xx xxx xxx xxx xx xxx xxx xxx x   x2      bass  solo

-----------------------1--|----10----|----------------------------------------|
----------------8-11---3--|----------|----------------------------------------|
------------6-9--------2--|----------|----------------------------------------|
--------5-8------------0--|----------|----------------------------------------|
--5-4-7----------------0--|----------|---\\\\\\\\\\\\\\\\\\\\\\\\\\\\\\\------|
--------------------------|----------|----------------------------------------|
           Guitar 1         Guitar 2        pick slide

-|1-111-111-111|--------------------------------------------------------------|
-|3-333-333-333|-----------8---810--81011810--8-------------------------------|
-|2-222-222-222|---79107910-910---10--------10--9107967-----------------------|
-|0-000-000-000|--7------------------------------------78---------------------|
-|0-000-000-000|-----------------------------------------107------------------|
-|-------------|--------------------------------------------------------------|
   Guitar 1            [Main Riff]                x2    mute only first time

-3-1-0-1-5-3------------3-1-0-1-5-3---|---------------------------------------|
-3-1-1-2-5-3------------3-1-1-2-5-3---|---------------------------------------|
-3-2-2-3-3-1-0-0000-0---3-2-2-3-3-1-0-|---------------------------------------|
-5-3-0-0-3-1-2-2222-2---5-3-0-0-3-1-2-|---------------------------------------|
-5-3-1-0-3-1-0-0000-0---5-3-1-0-3-1-0-|---------------------------------------|
-3-1-0---3-1------------3-1-0---3-1---|---------------------------------------|
   [break]     xxxx                              main riff      normal

------------------------------------------------------------------------------|
----------8---810--81011810--8------------------------------------------------|
--79107910-910---10--------10-9107967-----------------------------------------|
-------------------------------------78---------------------------------------|
---------------------------------------107------------------------------------|
------------------------------------------------------------------------------|
  xx x     x xx x

------------------------------------------------------------------------------|
-------------------------------------------------^----------------------------|
-23h0---------------------23h0-------------------7----------------------------|
-----7h05h03h05h03h02h0-0-----7h05h03h05h03h02h0------------------------------|
------------------------------------------------------------------------------|
------------------------------------------------------------------------------|


-------^---------^-------^-|------^--|--11--1-1------1-111-111-111-111-111----|
-3/6//11---2/5//10--2/3//8-|3/5//10--|--33--3-3------3-333-333-333-333-333----|
---------------------------|---------|--22--2-2------2-222-222-222-222-222----|
---------------------------|---------|--00--0-0------0-000-000-000-000-000----|
---------------------------|---------|--00--0-0------0-000-000-000-000-000----|
---------------------------|---------|--00--0-0------0-000-000-000-000-000----|
                         x2  1 time                  x xxx xxx xxx xxx xxx

------------------------------------------------------------------------------|
------------------------------------------------------------------------------|
------------------------------------------------------------------------------|
------------------------------------------------------------------------------|
------------------------------------------------------------------------------|
------------------------------------------------------------------------------|
 main riff 2 times   first mute and second open   then break 2 times

-----------------------|-----------^------------^--|--------------------------|
-----------------------|--------66-5---------66-5--|--------------------------|
-----------------------|--777777-------------------|--------------------------|
-\\\\\\\\\\\\\\\\\\\\--|---------------7-7-7-------|--------------------------|
-\\\\\\\\\\\\\\\\\\\\--|---------------------------|--------------------------|
-----------------------|---------------------------|--------------------------|
 pick slide               xxxxxxxx     x x x    x2          and finally

-------------------------^------------^---------------------------------------|
-3456789101112131415161718-------15--15\\\\\\\\\\\\\\\\\\\\\\\\\\\------------|
------------------------------------------------------------------------------|
------------------------------------------------------------------------------|
------------------------------------------------------------------------------|
------------------------------------------------------------------------------|
                                                                     END
Tap to rate this tab
# A B C D E F G H I J K L M N O P Q R S T U V W X Y Z