Song name
# A B C D E F G H I J K L M N O P Q R S T U V W X Y Z

Toy Dolls - My Wifes A Psychopath tab

Toy Dolls - My Wife's a Psychopath!

/  = slide up
\  = slide down
~  = vibrato
b  = bend
r  = release bend
tr = trill
pm_= palm mute



Intro:
(listen for strumming pattern)

    E    E   B
e|--7--|-7---7-|
B|--9--|-9---7-|
G|--9--|-9---8-|
D|--9--|-9---9-|
A|--7--|-7---9-|
E|--0--|-0---7-|



Verse 1:

 |-----------------------------2x-----------------------------|
 |---4x---|                |---6x---|                |---2x---|
e|--------|----------------|--------|----------------|--------|--------|
B|--------|----------------|--------|----------------|--------|--------|
G|--------|----------------|--------|----------------|--------|5---4---|
D|9-9-119-|9-9-8-8-6-6-5-5-|4-4-6-4-|4-4-5-5-6-6-8-8-|9-9-119-|5---4---|
A|7-7-7-7-|7-7-6-6-4-4-3-3-|2-2-2-2-|2-2-3-3-4-4-6-6-|7-7-7-7-|3---2---|
E|--------|----------------|--------|----------------|--------|--------|
  pm______                  ________                  ________
                                                      ^^^^^^^^
Second guitar: play open E string with whammy bar and slowly release
               first time through



Chorus:

                  |---2x---|---2x---|-------2x-------|
e|----------------|--------|--------|----------------|----------------|
B|----------------|--------|--------|----------------|----------------|
G|----------------|--------|--------|----9-----9-----|5-5-5-5-4-4-4-4-|
D|--2---2---2---2-|2-2-4-2-|4-4-6-4-|9-9-9-9-9-9-9-9-|5-5-5-5-4-4-4-4-|
A|--2---2---2---2-|0-0-0-0-|2-2-2-2-|7-7-7-7-7-7-7-7-|3-3-3-3-2-2-2-2-|
E|--0---0---0---0-|--------|--------|----------------|----------------|
                   pm___________________   ___   ___


                  |---2x---|---2x---|-------2x-------|
e|----------------|--------|--------|----------------|----------|
B|----------------|--------|--------|----------------|----------|
G|----------------|--------|4-4-4-4-|----2-----2-----|----4-4---|
D|--2---2---2---2-|2-2-4-2-|4-4-4-4-|2-2-2-2-2-2-2-2-|2-2-4-4-2-|
A|--2---2---2---2-|0-0-0-0-|2-2-2-2-|0-0-0-0-0-0-0-0-|2-2-2-2-2-|
E|--0---0---0---0-|--------|--------|----------------|0-0-----0-|
                   pm_______         ____   ___   ___



Verse 2:

 |---4x---|                |---6x---|                |---2x---|
e|--------|----------------|--------|----------------|--------|
B|--------|----------------|--------|----------------|--------|
G|--------|----------------|--------|----------------|--------|
D|9-9-119-|----------------|--------|----------------|9-9-119-|
A|7-7-7-7-|----------------|9-9-119-|9---7---6-9-----|7-7-7-7-|
E|--------|0-0-4-4-5-5-6-6-|7-7-7-7-|7---5---4-7-----|--------|
  pm______                  ________                  ________


 |---4x---|            |---6x---|
e|--------|------------|--------|----------------|-------------|
B|--------|------------|--------|----------------|-------------|
G|--------|--1-1---1-1-|--------|----------------|9---5---4----|
D|9-9-119-|--2-2---2-2-|4-4-6-4-|4-4-5-5-6-6-8-8-|9---5---4----|
A|7-7-7-7-|--2-2---2-2-|2-2-2-2-|2-2-3-3-4-4-6-6-|7---3---2----|
E|--------|0-----0-----|--------|----------------|-------------|
  pm______              ________



Chorus 2:

                  |---2x---|---2x---|-------2x-------|
e|----------------|--------|--------|----------------|------------|
B|----------------|--------|--------|----------------|------------|
G|----------------|--------|--------|----9-----9-----|5-5-5-5-4---|
D|--2---2---2---2-|2-2-4-2-|4-4-6-4-|9-9-9-9-9-9-9-9-|5-5-5-5-4---|
A|--2---2---2---2-|0-0-0-0-|2-2-2-2-|7-7-7-7-7-7-7-7-|3-3-3-3-2---|
E|--0---0---0---0-|--------|--------|----------------|------------|
                   pm___________________   ___   ___



Solo (lead):

 |----------2x----------|
e|---------8----10----8-|--------10-13-10---8---8~|
B|---10-----------------|------11--------11--8-8--|
G|10----10---10----10---|----10---------------9---|
D|----------------------|--12---------------------|
A|----------------------|13-----------------------|
E|----------------------|-------------------------|

e|--13--12--10--------------10------|
B|--------------13--10--13-----13---|
G|10--10--10--10--10--10--10-10--10-|
D|----------------------------------|
A|----------------------------------|
E|----------------------------------|

e|--------10-13-10---|--12-15-12-18b20----|
B|------11--------11-|13------------------|
G|----10-------------|-----------------17-|
D|--12---------------|--------------------|
A|13-----------------|--------------------|
E|-------------------|--------------------|

e|-------------------------------------------------------------------|
B|10--8--8b10r8----13b15-13------------------9b11--------------------|
G|--------------10---------------------------------------------------|
D|--10-10-----------------------------------------10----------10tr12-|
A|-------------------------------------5-8-5-----------7-10-7--------|
E|--------------------------8b10-8---6---------------8---------------|

e|--------------------------------|20-15-------------/8~-|
B|-------10-11-13~--11-10h11------|-----17---------------|
G|---------------------------10~--|-------17-------------|
D|8b10~---------------------------|---------17-----------|
A|--------------------------------|-----------19---------|
E|--------------------------------|-------------20\8-----|



Solo (rhythm):

 |--------------------------------3x---------------------------------|
e|----------------|----------------|----------------|----------------|
B|----------------|----------------|----------------|----------------|
G|----------------|----------------|3-3-3-3-3-3-3-3-|5-5-5-5-5-5-5-5-|
D|3-3-3-3-3-3-3-3-|3-3-3-3-3-3-3-3-|3-3-3-3-3-3-3-3-|5-5-5-5-5-5-5-5-|
A|3-3-3-3-3-3-3-3-|3-3-3-3-3-3-3-3-|1-1-1-1-1-1-1-1-|3-3-3-3-3-3-3-3-|
E|1-1-1-1-1-1-1-1-|1-1-1-1-1-1-1-1-|----------------|----------------|
  pm_________________________________________________________________

                                                    |-------2x-------|
e|----------------|----------------|----------------|----------------|
B|----------------|----------------|----------------|----------------|
G|----------------|5-5-5-5-5-5-5-5-|----------------|5-5-5-5-5-5-5-5-|
D|3-3-3-3-3-3-3-3-|5-5-5-5-5-5-5-5-|3-3-3-3-3-3-3-3-|5-5-5-5-5-5-5-5-|
A|3-3-3-3-3-3-3-3-|3-3-3-3-3-3-3-3-|3-3-3-3-3-3-3-3-|3-3-3-3-3-3-3-3-|
E|1-1-1-1-1-1-1-1-|----------------|1-1-1-1-1-1-1-1-|----------------|
    pm_________      ___________



Chorus 3:
                  |---2x---|---2x---|-------2x-------|
e|----------------|--------|--------|----------------|----------------|
B|----------------|--------|--------|----------------|----------------|
G|----------------|--------|5-5-5-5-|----10----10----|6-6-6-6-5-5-5-5-|
D|--3---3---3---3-|3-3-5-3-|5-5-5-5-|----10----10----|6-6-6-6-5-5-5-5-|
A|--3---3---3---3-|1-1-1-1-|3-3-3-3-|8-8-8-8-8-8-8-8-|4-4-4-4-3-3-3-3-|
E|--1---1---1---1-|--------|--------|----------------|----------------|
                   pm______                ___   ___


                  |---2x---|---6x---|
e|----------------|--------|--------|
B|----------------|--------|--------|
G|----------------|3-3-3-3-|5-5-5-5-|
D|--3---3---3---3-|3-3-3-3-|5-5-5-5-|
A|--3---3---3---3-|1-1-1-1-|3-3-3-3-|
E|--1---1---1---1-|--------|--------|


                  |---2x---|---2x---|-------2x-------|
e|----------------|--------|--------|----------------|----------------|
B|----------------|--------|--------|----------------|----------------|
G|----------------|3-3-3-3-|5-5-5-5-|----10----10----|6-6-6-6-5-------|
D|--3---3---3---3-|3-3-3-3-|5-5-5-5-|----10----10----|6-6-6-6-5-----3-|
A|--3---3---3---3-|1-1-1-1-|3-3-3-3-|8-8-8-8-8-8-8-8-|4-4-4-4-3-----3-|
E|--1---1---1---1-|--------|--------|----------------|--------------1-|
                                         pm___   ___



Outro:

e|----------------------|
B|----------------------|
G|8/10-10-x-10-x-10-8-8-|  Listen for strumming pattern
D|8/10-10-x-10-x-10-8-8-|  Repeat until end
A|6/8--8--x-8--x-8--6-6-|
E|----------------------|
Tap to rate this tab
# A B C D E F G H I J K L M N O P Q R S T U V W X Y Z