Song name
# A B C D E F G H I J K L M N O P Q R S T U V W X Y Z

Trace Bundy - Stones Serenade tab

This is a really good song. So I figured I'd share the tabs I've figured out with everyone.

I really suggest you play along with the song, to figure out parts in the tab that might 
confusing, and also to get the right timing.

Please let me know corrections before you give me a bad rating, I'm open to what you 
think, just let me know.

Feel free to email me at taylormoulton@live.com with comments or questions

Now onto the song...


Standard Tuning, Capo on 4th

|-1------3-----3-------------------3-----3------3p0----|
|-0--------1-------------------------1------1-------1--|
|-0----------0--------0----------------0------0-----2--|
|-0h2--2----------0h2----0-------0------------------2--|
|-3------------------------0h2----------------------0--|
|------------------------------------------------------|

--------------------------(0)----------*12-----------|
-----1----1p0-------0h1-1--1---1----------*13--------|
-----2----2-------2-2---2--2-----0---0-------*12-----| x2
---2------------2----------3-------3------------*15--|
-0------0-----0------------3-0-----------------------|
-----------------------------------------------------|

|-1-----3-----3--------------------------3-----3--------3p0-|
|-0-------1--------------------------------1------1---1-----|
|-0---------0---------0-0h2p0----------------0------0-------|
|-0h2-2---------0-0h2---------0h2------0--------------------|
|-3-------------------------------0h2-----------------------|
|-----------------------------------------------------------|

----------------------------(0)----------*12-----------|
-1-----1----1p0-------0h1-1--1---1----------*13--------|
-2-----2----2-------2-2---2--2-----0---0-------*12-----| x2
-2---2------------2----------3-------3------------*15--|
-0-0------0-----0------------3-0-----------------------|
-------------------------------------------------------|

|--------------------|
|------3-3-3-0-1p0---|
|------0-0-0-0-0---0-| x3
|------0-0-0-0-0-----|
|--x-x-x-------x-----|
|--3-3-3-------3-----|
   

|-------------------|
|-----3-3-3-3-3-3-3-|
|-----0-0-0-0-0-0-0-|
|-----0-0-0-0-0-0-0-|
|-x-x-x---------x---|
|-3-3-3---------3---|


|-----3---3-------3p0------------------0--------3---3-------|
|---1---1---1---1-----1----1---1---0h1---1----1---1---1---1-|
|-------------0------(2)---2---2---2--------------------0---|
|---------------------2-------------------------------------|
|-3-------------------0--0---0---0----------3---------------|
|-----------------------------------------------------------|


-3p0----------------0---|
-----1----1---1---1---1-|
----(2)---2---2---2-----| x2
-----2------------------|
-----0--0---0---0-------|
------------------------|

|--------------------|
|------3-3-3-0-1p0---|
|------0-0-0-0-0---0-| x3
|------0-0-0-0-0-----|
|--x-x-x-------x-----|
|--3-3-3-------3-----|
   

|-------------------|
|-----3-3-3-3-3-3-3-|
|-----0-0-0-0-0-0-0-|
|-----0-0-0-0-0-0-0-|
|-x-x-x---------x---|
|-3-3-3---------3---|

|-----3---3-------3p0------------------0--------3---3-------|
|---1---1---1---1-----1----1---1---0h1---1----1---1---1---1-|
|-------------0------(2)---2---2---2--------------------0---|
|---------------------2-------------------------------------|
|-3-------------------0--0---0---0----------3---------------|
|-----------------------------------------------------------|

-3p0----------------0---|
-----1----1---1---1---1-|
----(2)---2---2---2-----| x2
-----2------------------|
-----0--0---0---0-------|
------------------------|

|--------------------|
|------3-3-3-0-1p0---|
|------0-0-0-0-0---0-| x3
|------0-0-0-0-0-----|
|--x-x-x-------x-----|
|--3-3-3-------3-----|
   

|-------------------|
|-----3-3-3-3-3-3-3-|
|-----0-0-0-0-0-0-0-|
|-----0-0-0-0-0-0-0-|
|-x-x-x---------x---|
|-3-3-3---------3---|

|-----------------7-7-7-7-7/-5-5-3-0--0-0-0-0-1--1-1-1-0--|
|-/5-5-5-5-5-/x---0-0-0-0-0--0-0-0-0--1-1-1-1-1--1-1-1-0--|
|-/5-5-5-5-5-/x---0-0-0-0-0--0-0-0-0--2-2-2-2-2--2-2-2-2--|
|--7-7-7-7-7-/x---5-5-5-5-5--0-0-0-0--3-3-3-3-3--2-2-2-2--|
|--7-7-7-7-7-/x---0-0-0-0-0--0-0------3-3-3-3-3--0-0-0----|
|--5-5-5-5-5-/x---3-3-3-3-3--3-3--------------------------|


-3-3-3-3---------------------7-7-7-7-7/-5-5-3-0--0-0-0-0-1--|
-3-3-3-3-----/5-5-5-5-5-/x---0-0-0-0-0--0-0-0-0--1-1-1-1-1--|
-0-0-0-0-----/5-5-5-5-5-/x---0-0-0-0-0--0-0-0-0--2-2-2-2-2--|
-0-0-0-0------7-7-7-7-7-/x---5-5-5-5-5--0-0-0-0--3-3-3-3-3--|
-0-0-0-0------7-7-7-7-7-/x---0-0-0-0-0--0-0------3-3-3-3-3--|
-3-3-3-3------5-5-5-5-5-/x---3-3-3-3-3--3-3-----------------|

-1-1-1-0--3-3-3-3--------------------|
-1-1-1-0--3-3-3-3--------------------|
-2-2-2-2--0-0-0-0-0-0-0---0-0-0--0-0-|
-2-2-2-2--0-0-0-0-0-0-0---0-0-0--0-0-|
-0-0-0----0-0-0-0-0-0-0h2-2-2-0--0-0-|
----------3-3-3-3-3-3-3---3-3-3--3-3-|

|-----3---3-------3p0------------------0--------3---3-------|
|---1---1---1---1-----1----1---1---0h1---1----1---1---1---1-|
|-------------0------(2)---2---2---2--------------------0---|
|---------------------2-------------------------------------|
|-3-------------------0--0---0---0----------3---------------|
|-----------------------------------------------------------|

-3p0----------------0---|
-----1----1---1---1---1-|
----(2)---2---2---2-----| x2
-----2------------------|
-----0--0---0---0-------|
------------------------|

|--------------------|
|------3-3-3-0-1p0---|
|------0-0-0-0-0---0-| x3
|------0-0-0-0-0-----|
|--x-x-x-------x-----|
|--3-3-3-------3-----|
   

|-------------------|
|-----3-3-3-3-3-3-3-|
|-----0-0-0-0-0-0-0-|
|-----0-0-0-0-0-0-0-|
|-x-x-x---------x---|
|-3-3-3---------3---|

|-----------------7-7-7-7-7/-5-5-3-0--0-0-0-0-1--1-1-1-0--|
|-/5-5-5-5-5-/x---0-0-0-0-0--0-0-0-0--1-1-1-1-1--1-1-1-0--|
|-/5-5-5-5-5-/x---0-0-0-0-0--0-0-0-0--2-2-2-2-2--2-2-2-2--|
|--7-7-7-7-7-/x---5-5-5-5-5--0-0-0-0--3-3-3-3-3--2-2-2-2--|
|--7-7-7-7-7-/x---0-0-0-0-0--0-0------3-3-3-3-3--0-0-0----|
|--5-5-5-5-5-/x---3-3-3-3-3--3-3--------------------------|


-3-3-3-3---------------------7-7-7-7-7/-5-5-3-0--0-0-0-0-1--|
-3-3-3-3-----/5-5-5-5-5-/x---0-0-0-0-0--0-0-0-0--1-1-1-1-1--|
-0-0-0-0-----/5-5-5-5-5-/x---0-0-0-0-0--0-0-0-0--2-2-2-2-2--|
-0-0-0-0------7-7-7-7-7-/x---5-5-5-5-5--0-0-0-0--3-3-3-3-3--|
-0-0-0-0------7-7-7-7-7-/x---0-0-0-0-0--0-0------3-3-3-3-3--|
-3-3-3-3------5-5-5-5-5-/x---3-3-3-3-3--3-3-----------------|

-1-1-1-0--3-3-3-3-3/5--5-3-3-0-3-5-p3--3h5-5-3-3-0-3-5-p3-|
-1-1-1-0--3-3-3-3-3----3-3-3-0-3-3-----3---3-3-3-0-3-3----|
-2-2-2-2--0-0-0-0-0----0-0-0-0-0-0-----0---0-0-0-0-0-0----|
-2-2-2-2--0-0-0-0-0----0-0-0------------------------------|
-0-0-0----0-0-0-0-0----0-0-0------------------------------|
----------3-3-3-3-3----3-3-3------------------------------|

-3h5-5-3-3-0-3-5-p3--3h5p3p0-1h3p1p0-----------------------|
-3---3-3-3-0-3-3---------------------3h5p3p0---------------|
-0---0-0-0-0-0-0-----------------------------2h4p2p0-------|
-----------------------------------------------------0h2p0-|
-----------------------------------------------------------|
-----------------------------------------------------------|

---------|
---------|
---0---0-|
---------|
-2---3---|
---------|

|-----3---3-------3p0-----------0----|
|-------1---1---1-----1-1---------1--|
|---0---------0------(2)--2---2------|
|---------------------2-----2--------| x3
|-3-------------------0--------------|
|------------------------------------|

|-----3---3-------3p0-------------|
|-------1---1---1-----1-1---1-0---|
|---0---------0------(2)--2-----0-|
|---------------------2-----------|
|-3-------------------0-0---------|
|---------------------------------|


|--------------------|
|------3-3-3-0-1p0---|
|------0-0-0-0-0---0-| x3
|------0-0-0-0-0-----|
|--x-x-x-------x-----|
|--3-3-3-------3-----|
   

|---------3--|
|-----3------|
|-------0----|
|---0--------|
|------------|
|-3----------|

|-3-----3-----3----------------3-----3----3p0---------|
|-1-------1----------------------1-----1------1-----1-|
|-0---------0--------0-------------0----------2-----2-|
|-0h2-2----------0h2---0-----0----------------2---2---|
|-3----------------------0h2------------------0-0-----|
|-----------------------------------------------------|

-------------------(0)----------*12------------------0-|
---1p0-------0h1-1--1---1-----------*13--------------1-|end
---2-------2-2---2--2-----0---0---------*12----------0-|on
---------2----------3-------3---------------*15------3-|upstrum
-0-----0------------3-0-------------------------*15--3-|
-----------------------------------------------------x-|
Tap to rate this tab
# A B C D E F G H I J K L M N O P Q R S T U V W X Y Z