Song name
# A B C D E F G H I J K L M N O P Q R S T U V W X Y Z

Trace Bundy - Communion tab

Hey guys, I spent the past few days figuring this out and getting it tabbed. I'm sure 
about perfect, I spent a lot of time on it.

If you like this one, check out my tab for Stone's Serenade by Trace Bundy.

Feel free to send suggestions for my next tab by Trace to taylormoulton@live.com, as a 
of you already have. I like taking suggestions. Please comment on it and explain if you 
I deserve less than 5 stars and I'll take a look at it.

As usual, I suggest you watch videos of Trace while you try learning this, because its 
hard to tab out exactly what he does in just text, it will be to your benefit to watch 
I tabbed it straight from his videos on YouTube. Email me for links if you want.

Enjoy.


Communion
Trace Bundy
Capo 2 DADGAD

|-0h2h3h7p3h5p3p0--0h3h5h8p5h7p5p3-------------------------------------------|
|-----------------------------------0-h3h7p3h5p3p0---------------------------|
|---------------------------------------------------0h2-h5p2------h2p0-------|
|---------------------------------------------------0h3------h7p3------h5p3--|
|-----------------------------------0h3-------------0h3----------------------|
|-0----------------5-------------------------------(0h3)---------------------|

|---------------------------h5p0h3p0-----------------h5p0-------h7p0h5p0h3p0h2p0-------|
|-0-h1h5p1h3p1p0-------h5p0----------h5p0-------h4p0------h4p0-------------------h4/5--|
|-------------------h3-----------------------h2----------------------------------------|
|--------------------------------------------------------------------------------------|
|-0h1-------------5------------------------7---------------------7---------------------|
|-----------------5------------------------7---------------------7---------------------|x2

|----------h8-p0------------h5p0--------------h7p3p0---h7/5p3p2p0-------|
|---h5/8p0--------0-h3-h7p3--------------h5p3---------------------h3p0--|
|-------------------------------------h2--------------------------------|
|---------------------------------0------------------0------------------|
|-8---------------0h3-------------0h3----------------0------------------|
|-8-------------------------------0h3----------------0------------------|

|----------h8-p0------------h5p0--------------h7p3p0---------------------h3p2--|
|---h5/8p0--------0-h3-h7p3--------------h5p3----------------------------------|
|-------------------------------------h2--------------------------h2h3p2-------|
|---------------------------------0------------------0----h2h3-h3--------------|
|-8---------------0h3-------------0h3----------------0-h5----------------------|
|-8-------------------------------0h3----------------0-------------------------|

|-p0---------h8-p0------------h5p0-------------h7p3p0---h7/5p3p2h3p2p0------|
|-----h5/8p0--------0-h3-h7p3-------------h5p3-------------------------h3p0-|
|--------------------------------------h2-----------------------------------|
|----------------------------------0------------------0---------------------|
|--8----------------0h3------------0h3----------------0---------------------|
|--8-------------------------------0h3----------------0---------------------|


|----------h8p0-h7p0-h5p3p0-------------------------h5p0-h7p0-h7h8p7p0-h5h7p5p0-h3h5p3p0-h2-----|
|---h5/8p0------------------h5p3p0-------------h4p0-----------------------------------------h3--|
|----------------------------------h3p0---h2p0--------------------------------------------------|
|-----------------------------------------------------------------------------------------------|
|-8-------------------5-----------------7----------------------7--------------------------------|
|-8-------------------5-----------------7----------------------7--------------------------------|

|-0h2h3h7p3h5p3p0--0h3h5h8p5h7p5p3-------------------------------------------|
|-----------------------------------0-h3h7p3h5p3p0---------------------------|
|---------------------------------------------------0h2-h5p2------h2p0-------|
|---------------------------------------------------0h3------h7p3------h5p3--|
|-----------------------------------0h3-------------0h3----------------------|
|-0----------------5-------------------------------(0h3)---------------------|

|---------------------------h5p0h3p0-----------------h5p0-------h7p0h5p0h3p0h2p0-------|
|-0-h1h5p1h3p1p0-------h5p0----------h5p0-------h4p0------h4p0-------------------h4/5--|
|-------------------h3-----------------------h2----------------------------------------|
|--------------------------------------------------------------------------------------|
|-0h1-------------5------------------------7---------------------7---------------------|
|-----------------5------------------------7---------------------7---------------------|x2

|----------h8-p0------------h5p0--------------h7p3p0---h7/5p3p2p0-------|
|---h5/8p0--------0-h3-h7p3--------------h5p3---------------------h3p0--|
|-------------------------------------h2--------------------------------|
|---------------------------------0------------------0------------------|
|-8---------------0h3-------------0h3----------------0------------------|
|-8-------------------------------0h3----------------0------------------|

|----------h8-p0------------h5p0--------------h7p3p0---------------------h3p2--|
|---h5/8p0--------0-h3-h7p3--------------h5p3----------------------------------|
|-------------------------------------h2--------------------------h2h3p2-------|
|---------------------------------0------------------0----h2h3-h3--------------|
|-8---------------0h3-------------0h3----------------0-h5----------------------|
|-8-------------------------------0h3----------------0-------------------------|

|-p0---------h8-p0------------h5p0-------------h7p3p0---h7/5p3p2h3p2p0------|
|-----h5/8p0--------0-h3-h7p3-------------h5p3-------------------------h3p0-|
|--------------------------------------h2-----------------------------------|
|----------------------------------0------------------0---------------------|
|--8----------------0h3------------0h3----------------0---------------------|
|--8-------------------------------0h3----------------0---------------------|


|----------h8p0-h7p0-h5p3p0-------------------------h5p0-h7p0-h7h8p7p0-h5h7p5p0-h3h5p3p0-h2-----|
|---h5/8p0------------------h5p3p0-------------h4p0-----------------------------------------h3--|
|----------------------------------h3p0---h2p0--------------------------------------------------|
|-----------------------------------------------------------------------------------------------|
|-8-------------------5-----------------7----------------------7--------------------------------|
|-8-------------------5-----------------7----------------------7--------------------------------|

 		(throw in some percussion here)
|-----2/7-7-7p0-h7p0h7p0-h7p0--|
|-p0--3/8-8-8------------------|
|-----2/7-7-7------------------| watch video for rhythm and technique
|-----0---0--------------------|
|-----0---0--------------------|
|------------------------------|

(Keep D shape here, except on high e string pull offs)
|-------h12p7-0h7-h10p7-------------0h7---|
|-h15p8-----------------h12p8-h10p8-------|
|-----------------------------------------| x3
|-----------------------------------------|
|---------------------------------------0-|
|---------------------------------------0-| ←hit the two low strings with your thumb

|-h15p7-h14p7-h12p7-------------0h7p0--------|
|-------------------h12p8-h10p8-------h10p8--|
|--------------------------------------------|
|--------------------------------------------|
|--------------------------------------------|
|--------------------------------------------|

(then do 2 palm muted strums across all the strings)

|-------8-0------------2-0----------x-3-0--3/7--|
|-----8-x-0----------3-x-0--------0-3-x-0--x/x--|
|---7-7-7-7--------0-x-x-0------0-2-2-2-2--2/6--|
|-8-8-8-8-8------0-2-2-2-2--0h3-3-3-3-3-3--3/7--| x3
|-8-8-8-8-8--0h3-3-3-3-3-3--0h3-3-3-3-3-3--3/7--|
|-8-8-8-8-8--0h3-3-3-3-3-3--0h3-3-3-3-3-3--3/7--|

|-------8-0----5-3-0-0-------------------------7-7-7/8/7--|
|-----8-x-0----x-x-5-3-0-0--5/7-7-7/8/7-7/8/7--x-x-x/x/x--|
|---7-7-7-7----0-0-x-x-3-0--x/x-x-x/x/x-x/x/x--6-6-6/7/6--|
|-8-8-8-8-8--5-5-5-5-5-5-5--5/7-7-7/8/7-7/8/7--7-7-7/8/7--| (watch for strumming)
|-8-8-8-8-8--5-5-5-5-5-5-5--5/7-7-7/8/7-7/8/7--7-7-7/8/7--|
|-8-8-8-8-8--5-5-5-5-5-5-5--5/7-7-7/8/7-7/8/7--7-7-7/8/7--|

|-0h2h3h5h7/8/7p5p3p2p0----------------------------------------------|
|-----------------------h3h5/7/5p3p0h1h3p1p0-------------------------|
|--------------------------------------------h2h3p3p0----------------|
|-----------------------------------------------------h2h3p2p0-------|
|--------------------------------------------------------------h3/5--|
|-0------------------------------------------------------------------|

|-2/7-p0h7p0h7p0h7p0h7--|
|-3/8-------------------|
|-2/7-------------------|
|-0---------------------|
|-0---------------------|
|-0---------------------|
Tap to rate this tab
 
# A B C D E F G H I J K L M N O P Q R S T U V W X Y Z