Song name
# A B C D E F G H I J K L M N O P Q R S T U V W X Y Z

Trace Bundy - Porch Swing tab

Tuning Dadgad
Simplified, but accurate version

(palm muted)x2
d----------------------------------------------------------------------------|
A----------------------------------------------------------------------------|
D----------------------------------------------------------------------------|
G------0-------0-------0-----------0-----------------------------------------|
A-----------------------------0----------------------------------------------|
D--0-------0-------0-------0-----0-------------------------------------------|

(palm muted)x2
d-----------------------------------------------------------------------------|
A-----------------------------------------------------------------------------|
D--0/7-10-12--7-10-12--7-10-12-14-12-10--5-9-10--5-9-10-5-9-10-10-10-9-10-9-5-|
G-----------------------------------------------------------------------------|
A-----------------------------------------------------------------------------|
D-----------------------------------------------------------------------------|

(still palm muted, but ease off a little)
d----------------------------------------------------------------------------|
A----------------------------------------------------------------------------|
D--7-3-7-3-7-7-3-7-3-7-9-5-9-5-9-9-5-9  the rhythm in this is tricky---------|
G----------------------------------------------------------------------------|
A----------------------------------------------------------------------------|
D----------------------------------------------------------------------------|


(barely palm muted)
d----------------------------------------------------------------0-0-0-0-0-0-|
A----------------------------------------------------------------x-x-x-x-x-x-|
D-0/7-10-12-14-12-14-15-14-12-14-12-10-12-10-9-10-9-7-9-7-10-9-7-7-7-7-7-7-7-|
G----------------------------------------------------------------0-0-0-0-0-0-|
A----------------------------------------------------------------0-0-0-0-0-0-|
D----------------------------------------------------------------0-0-0-0-0-0-|
Tap to rate this tab
# A B C D E F G H I J K L M N O P Q R S T U V W X Y Z