Guitaretab - guitar tabs
Song name
# A B C D E F G H I J K L M N O P Q R S T U V W X Y Z

Trace Bundy - Urban Challenge tab

Artist- Trace Bundy
Song- Urban Challenge (the loopy loopy song)
DVD- Trace bundy Adapt:live

     Now this is a little more than intro, but i may finish the rest later
its a lot of random finger picking since he admits he makes up a lot
on spot jus for fun. But this is what he did form his live dvd which
everyone should buy!  Enjoy :)

Capo- 2nd fret
Tuning- Dadgad

E- Full step down   D
B- Full step down   A
G-                  G
D-                  D
A-                  A
E- Full step down   D




Intro
D-----------------------------------------------------------------------|
A-----------------------------------------------------------------------|
G------2------0----------2------0-----------2-----0----------2-----0----|
D----4---4------4------3---3------3-------2---2-----2------2---2-----2--|
A--5-------5------5--5-------5------5--4--------4-----4--0-------0----0-|
D-----------------------------------------------------------------------|

Do that twice then the serenading part comes in!
Intro cont.
D------------------------------------|----------------------------------|
A------------------------------------|----------------------------------|
G------2------0------3-----2-----0---|------0-----2-----3-----2-----0---|
D----3---3------3------3-----3-----3-|----2---2-----2-----2-----2-----2-|
A------------------------------------|--3-------3-----3-----3-----3-----|
D--3--------3------3-----3-----3-----|----------------------------------|

D------------------------------------|----------------------------------|
A------------------------------------|----------------------------------|
G------0-----2-----3-----5-----5-5-5\|2------------0-----2--0-----------|
D----0---0-----0-----0-----0---------|--0---0----2-------------2--------|
A--1-------1-----1-----1-----1-------|----0----4------4----------4------|
D------------------------------------|----------------------------------|

right now is when he basically uses his guitar as a djembe'.
if you listen u can get the beat and his left hand does a simple
little riff. Loop #1

D------------------------------------|----------------------------------|
A------------------------------------|----------------------------------|
G------------------------------------|----------------------------------|
D-(0)--------------------------------|----------------------------------|
A--0---------------------------------|--3-----------------------------p0|
D--0---------------------------------|----------------------------------|

[ Tab from: http://www.guitaretab.com/t/trace-bundy/85970.html ]
D------------------------------------|----------------------------------|
A------------------------------------|----------------------------------|
G------------------------------------|----------------------------------|
D------------------------------------|----------------------------------|
A--1---------------------------------|--p0---------------------------4--|
D------------------------------------|----------------------------------|

This part he changes every live performance but this is his dvd version

D------0-2-3-3/5--5-5/8--8-8\7--7-7\5|-5-5\3-3--3\2--2h3p2p0-------5*---|
A------------------------------------|------------------------3\5-------|
G------------------------------------|----------------------------------|
D-(0)--------------------------------|----------------------------------|
A--0---------------------------------|----------------------------------|
D--0---------------------------------|----------------------------------|


D------------------------------------|----------------------------------|
A--1h3p0-----------------------------|----------------------------------|
G--------h2--------------------------|----------------------------------|
D------------------------------------|----------------------------------|
A------------------------------------|----------------------------------|
D------------------------------------|----------------------------------|
 he does a little finger pickking you can barely hear next
but this is basically what he does

D--------0---2/7---------------------|---------0-------3-2--0--0--------|
A----3-------3/8---------------------|----1-------1--------------1------|
G------2-----2/7---------------------|----------------------------------|
D--0---------0-----------------------|----------------------------------|
A------------------------------------|--1----1------1---------------1---|
D------------------------------------|----------------------------------|

D-------0---------5--3--2------------|----------------------------------|
A-1/3------3---------------3---------|----------------------------------|
G------------------------------------|----------------------------------|
D------------------------------------|----------------------------------|
A-1/3---------3----------------3-----|----------------------------------|
D------------------------------------|----------------------------------|


This part sounds so good, Loop #2
D------------------------------------|----------------------------------|
A------------------------------------|----------------------------------|
G------2-----2-----3-----2-----0-----|------0-----2-----3-----2-----0---|
D----3---2-----3-----3-----3-----2---|----2---2-----2-----2-----2-----2-|
A--5-------5-----5-----5-----5-------|--3-------3-----3-----3-----3-----|
D------------------------------------|----------------------------------|

D------------------------------------|----------------------------------|
A------------------------------------|----------------------------------|
G------0-----2------3------5------5--|-5\2---2------------0---2-0-------|
D----0---0-----0------0------0-------|---------0---0----2---------2----0|
A--1-------1-----1------1------1-----|-----0-----0----4-----4-------4--0|
D------------------------------------|---------------------------------0|

I will probably update this later but i hope you enjoy for now :)
God bless

Related for Urban Challenge tab
Urban Challenge chords by Trace Bundy