Song name
# A B C D E F G H I J K L M N O P Q R S T U V W X Y Z

Tracy And Paul - Planned Mistake tab

Help us improve GuitareTab! Take a short survey!
Planned mistake by Tracy and Paul

Intro:
 E|--------------------------------------------------------------------------------------------------------------------|
 B|--------------------------------------------------------------------------------------------------------------------|
 G|------------------------------------------5------------------------------------------------------------5------------|
 D|------------3----------5----------3--------------------7---------------3------------5-------3--------------------7--|
 A|----1------------3----------------------------5-----------------1------------3----------------------------5---------|
 E|--------------------------------------------------------------------------------------------------------------------|

Riff 1:
 E|----------------------------------------------------------------------------------------------|
 B|----------------------------------------------------------------------------------------------|
 G|------------------------------5-5-5-5-------------------------------------------5-5-5-5-------|
 D|----3-3-3-3----5-5-5-5----3-3-3-3----7-7-7-7----3-3-3-3----5-5-5-5----3-3-3-3----7-7-7-7------|
 A|----1-1-1-1----3-3-3-3-----------------5-5-5-5----1-1-1-1----3-3-3-3-----------------5-5-5-5--|
 E|----------------------------------------------------------------------------------------------| x2

 This is basically the whole song.

?next coltyn.
Related for Planned Mistake tab