Guitaretab - guitar tabs
Song name
# A B C D E F G H I J K L M N O P Q R S T U V W X Y Z

Tracy And Paul - Coltyn tab

Coltyn  by Tracy and Paul
[ Tab from: http://www.guitaretab.com/t/tracy-and-paul/45089.html ]
E|-----------------------------------------------------------------------------|
B|-----5-----------------------------------5-----------------------------------|
G|-----------5-----------5---------5------------5-----------5---------5--------|
D|------------------3---------3-------------------------3---------3------------|
A|-----------------------------------------------------------------------------|
E|-----------------------------------------------------------------------------|

E|--------------------------------------|
B|----5--5----3-3-3---5-----------------|
G|----5--5----3-3-3---5-----------------|
D|----3--3----1-1-1---3-----------------|
A|--------------------------------------|
E|--------------------------------------|

The song pretty much just repeats this the whole time.
Related for Coltyn tab