Song name
# A B C D E F G H I J K L M N O P Q R S T U V W X Y Z

Tracy Bonham - Naked tab

Tracy Bonham - "Naked"
Tabbeds by: Corinne Hickman
Tuning: Standard eBGDAE


Intro/Verses:
e --------------------------------------------------------I
B --------------------------------------------------------I
G ---------------------------------0--2--0----------------I
D ------0--4--0-----0--4--0-----0-----------0-----0-------I
A ---0-----------3-----------1-----------------1----------I
E --------------------------------------------------------I
     My stubborn skin is wearing thin...


Bridge:

e-----6-----I
B-----8-----I
G-----8-----I
D-----8-----I
A-----6-----I
E-----6-----I
      And you just made me...


Chorus:

e-----2---2---1---3----I
B-----3---3---1---0----I
G-----2---4---2---0----I
D-----0---4---3---0----I
A---------2---3---2----I
E---------2---1---3----I
      Naked, and I don't remember


Instumental:

e-----9---7---3---I
B-----9---7---3---I
G-----10--8---4---I
D-----11--9---5---I
A-----11--9---5---I
E-----9---7---3---I


For the end of the song, finish on D.

Lyrics:

My stubborn skin is wearing thin
I bared my soul, you waltzed right in
I gave you everything
And you just made me feel so very..

Naked
And I don't remember
How I let myself become so unraveled

I spilled my guts on your best shoes
You keep it in, I rang it loose
It's only love that makes me feel like getting so completely..

Naked
And I don't remember
How I let myself become so unraveled
I'm naked
Pretty as a heartache
Waiting for my second skin to settle in

Your hardened heart can't hide you now
It loves as much as you allow
And in the end the idle army will just take you down
And you'll be..

Naked
Nothing but a heartache
And you know there's nothing that can hide you now
You're naked
Pretty as a heartache
Go on out exactly how you came in
Tap to rate this tab
 
# A B C D E F G H I J K L M N O P Q R S T U V W X Y Z