Song name
# A B C D E F G H I J K L M N O P Q R S T U V W X Y Z

Tracy Byrd - Drinkin Bone tab

e|---1-x-1------------1-x-1-----------1-x-1-----------3-x-3----------------|
B|---1-x-1------------3-x-3-----------1-x-1-----------5-x-5----------------|
G|---2-x-2------------3-x-3-----------2-x-2-----------5-x-5----------------|
D|---3-x-3------------3-x-3--------3--3-x-3-----------5-x-5---------5------|
A|---3-x-3---------3--1-x-1--1--3/5---3-x-3--------3--3-x-3--3--5/7--------|
E|---1-x-1--1--3/5--------------------1-x-1--1-3/5-------------------------|
repeat

You could also use open c for the barre on the end, but you miss out on the "slide" back 
the f barre:
e|----0-x-0----------------------------------------------------------------|
B|----1-x-1----------------------------------------------------------------|
G|----0-x-0-----0----------------------------------------------------------|
D|----2-x-2---2------------------------------------------------------------|
A|----3-x-3-3--------------------------------------------------------------|
E|-------------------------------------------------------------------------|
Nice and easy song to play. Enjoy.

by
PuntedBaxterII
Tap to rate this tab
# A B C D E F G H I J K L M N O P Q R S T U V W X Y Z