Song name
# A B C D E F G H I J K L M N O P Q R S T U V W X Y Z

Tracy Byrd - Ten Rounds With Jose Cuervo tab

Help us improve GuitareTab! Take a short survey!
This is really the intro but it is also played throughout the whole song.
FYI: h- hammer on
     L- means let your finger off(forgot what its called)



e---------------------------------------------|
B---------------------------------------------|
G---------------------------------------------|
D--------0-4-0-------2-0--------0-4-0-2L0-4-0-|
A-0-0-h2-------2---2-----0-0-h2---------------|
E----------------3----------------------------|

e-----------------------------------------------|
B-----------------------------------------------|
G-----------------------------------------------|
D--------0-4-0-------2-0--------0-4-0-2-h4-L2-0-|
A-0-0-h2-------2---2-----0-0-h2-----------------|
E----------------3------------------------------|

This is my first post so tell me what you think.

Related for Ten Rounds With Jose Cuervo tab