Guitaretab - guitar tabs
Song name
# A B C D E F G H I J K L M N O P Q R S T U V W X Y Z

Tracy Chapman - Im Ready tab

----------------------------------------------------------------------------
			     IM READY  Tracy Chapman
----------------------------------------------------------------------------
Email: dintrepid8@yahoo.com

Tuning: Standard
This part is repeated throughout the entire song. The timing can be perfected by 
to the song carefully. This song is simple but cool when played right.

[ Tab from: http://www.guitaretab.com/t/tracy-chapman/143586.html ]
e|-------------------------------------------------------------------------|
B|-------------------------------------------------------------------------|
G|-------0-0h2-0-0h2-0-----------------0-----------------------------------|
D|----3------------------0-0h2-0---------0h2-0---0---0-0h2-0---------------|
A|---------------------3---------3-------------3-------------3-2-----------|
E|---------------------------------3---------------1-----------------------|
Related for Im Ready tab