Song name
# A B C D E F G H I J K L M N O P Q R S T U V W X Y Z

Tracy Chapman - Telling Stories tab

Intro, some parts, ending:

Repeat many times (listen the song)
e||------------------------|
B||------------------------|
G||------------------------|
D||------2-2-----2-2-------|
A||------------------------|
E||--0-0-----0-0-----------|


First solo x2, Middle solo x 2, Last solo x3             This part i'm not sure
e||-----7----------------------------------------------|------------------------|
B||-----------10-----8-----10-----7-----8-----7--------|------------------------|
G||--9-----9------9-----9------7-----7-----7-----7--9--|---7--9--7--------------|
D||----------------------------------------------------|------------7-/9--7-----|
A||----------------------------------------------------|------------------------|
E||----------------------------------------------------|------------------------|

/ = Slide up
\ = Slide down
Tap to rate this tab
 
# A B C D E F G H I J K L M N O P Q R S T U V W X Y Z