Song name
# A B C D E F G H I J K L M N O P Q R S T U V W X Y Z

Tracy Chapman - Unsung Psalm tab

-----------------------------------------------------------------
                 Unsung Psalm - Tracy Chapman
-----------------------------------------------------------------

Albums: Telling Stories
Tabbed by: Joel C.
Email: jcboxfr AT yahoo DOT fr

Tuning: Standard EADGBe

C         D     
EADGBe    EADGBe
x32010    xx0232

Structure: P1 
           P2 P2 P2 P3 ] repeat this part 7 times.
           P2 P2 P2 P4
           P5 P5 P5 P3
           P2 P2 P2 P3


P1: Intro Time: 0:00

  C                          D                          
e|-----------------|---------2-----2-|-----232-0-------|
B|-1-----1-------1-|---1-----3---3---|---3-------3-----|
G|-0---0-----0---0-|---0-------------|---------------0-|
D|-----------------|-----0---0-------|-----0-------0---|
A|-3-----------3---|-2---------------|-----------------|
E|-----------------|-----------------|-----------------|
   *   *   *   *     *   *   *   *     *   *   *   *    

  C                          D                          
e|-----------------|---------2-------|-----------------|
B|-1-----1-------1-|---1-----3-------|-----------------|
G|-0---0-----0---0-|---0-------------|-----------------|
D|-----------------|-----0---0-------|-----------------|
A|-3-----------3---|-2---------------|-----------------|
E|-----------------|-----------------|-----------------|
   *   *   *   *     *   *   *   *     *   *   *   *    


P2: Time: 0:12

  C                          D                          
e|-----------------|---------2-----2-|-----232-0-------|
B|-1-----1-------1-|---1-----3---3---|---3-------3-----|
G|-0---0-----0---0-|---0-------------|---------------0-|
D|-----------------|-----0---0-------|-----0-------0---|
A|-3-----------3---|-2---------------|-----------------|
E|-----------------|-----------------|-----------------|
   *   *   *   *     *   *   *   *     *   *   *   *    


P3: Time: 0:30

  Em
e|-0-----0-----02--|---2-----3-------|-----------------|
B|-----0----(0)----|-0----(0)--------|-----------------|
G|-----------------|-----------------|-----------------|
D|-----------------|-----------------|-----------------|
A|-----2---2---2---|-2---2---2-------|-----------------|
E|-0---------------|-----------------|-----------------|
   *   *   *   *     *   *   *   *     *   *   *   *    


P4: Time: 3:18

  Em                                  D                 
e|-0-----0-----02--|---2-----3-------|-----3-2^0-------|
B|-----0----(0)----|-0----(0)--------|-----------3-----|
G|-----------------|-----------------|-------------2^0-|
D|-----------------|-----------------|-----------------|
A|-----2---2---2---|-2---2---2-------|-----------------|
E|-0---------------|-----------------|-----------------|
   *   *   *   *     *   *   *   *     *   *   *   *    

P5: Time: 3:24

  C                          D                          
e|-----------------|---------2-----2-|-----3-2^0-------|
B|(1)----1-----0---|--0----0-----3---|-----------3-----|
G|-0---0-----0---0-|--0----0---------|-------------2^0-|
D|-----------------|-----0---0-------|-----------------|
A|-3-----------3---|-2---------------|-----------------|
E|-----------------|-----------------|-----------------|
   *   *   *   *     *   *   *   *     *   *   *   *    

End
Tap to rate this tab
 
# A B C D E F G H I J K L M N O P Q R S T U V W X Y Z