Song name
# A B C D E F G H I J K L M N O P Q R S T U V W X Y Z

Tracy Chapman - Smoke And Ashes tab

#----------------------------------PLEASE NOTE---------------------------------#
#This file is the author's own work and represents their interpretation of the #
#song. You may only use this file for private study, scholarship, or research. #
#------------------------------------------------------------------------------#


Date: 29/07/12
From: david-king@sky.com


Smoke and Ashes

From the album:  New Begining by Tracy Chapman

Transcribed by David King

Notes:  The other versions did not sound quite right to me so here is my attempt.




----------0------------------0------------------0------------------0--------|
-------------0------------------0------------------0------------------0-----|
-----2------------------2------------------2------------------2-------------|
----------------------------------------------------------------------------|
---0------------------0------------------0------------------0---------------|
----------------------------------------------------------------------------|




----------0------------------0------------------1------------------0--------|
-------------0------------------0------------------0------------------0-----|
-----1------------------1------------------1------------------1-------------|
----------------------------------------------------------------------------|
---2------------------2------------------2------------------2---------------|
----------------------------------------------------------------------------|
Tap to rate this tab
# A B C D E F G H I J K L M N O P Q R S T U V W X Y Z