Song name
# A B C D E F G H I J K L M N O P Q R S T U V W X Y Z

Tracy Chapman - Fast Car Acoustic tab

Tabbed by:Charlie
E-mail: motoxcjay14@hotmail.co.uk

Tuning: Standard               Fast Car
                      
e|----------------0--------0-----------5-------4---------4-------------------|
B|---------------------------------------------------------------------------|
G|---6--7-6------------------------------------------------------------------|
D|---7------------7------------7-------7-------7---------------7-------------|
A|---------------------------------------------------------------------------|
E|---------------------------------------------------------------------------|

e|----------------0--------0-----------5-------4---------4-------------------|
B|---------------------------------------------------------------------------|
G|---6--7-6------------------------------------------------------------------|
D|---7------------7------------7--------7------7---------------7-------------|
A|---------------------------------------------------------------------------|
E|---------------------------------------------------------------------------|



Great song! my first tab! Enjoy!
Tap to rate this tab
# A B C D E F G H I J K L M N O P Q R S T U V W X Y Z