Song name
# A B C D E F G H I J K L M N O P Q R S T U V W X Y Z

Tracy Chapman - Fast Car Acoustic tab

Pre verse , and between chorus and verse
----------------------|----------------------|--------------7-------------|
-2h3-2-5-5s10 10-9-9--|-2h3-2-5-5s10 10-9-9--|-2h3-2-5-5s10---10--9-10-9--|
----------------------|----------------------|----------------------------|
-0--------------------|-0--------------------|-0--------------------------|
-------0---9----------|-------0---9----------|-------0---9----------------|
-----------------0----|-----------------0----|--------------------0-------|


Verse (repeat the following until chorus)
----------------------|
-2h3-2-5-5s10 10-9-9--|
----------------------|
-0--------------------|
-------0---9----------|
-----------------0----|


Chorus (chords)
D         A         f#m         E    (said a remember....... )

D   F#m   E                          (I had a feeling ...... )

D   F#m   E         D      E         (I had a feeling ...... )

------
cheers!!
rappe
Tap to rate this tab
# A B C D E F G H I J K L M N O P Q R S T U V W X Y Z