Song name
# A B C D E F G H I J K L M N O P Q R S T U V W X Y Z

Tracy Chapman - Talk To You tab

Highlighted       Show chord diagrams
  C:  032010                
  Gm: 355333                
  Am: 002210                
  Fm: 133111                
  D:  000232                
  Dm: 000231  

bass intro:
E||----------0---------|----------2---------|
B||----------1---------|----------3---------|
G||--------------------|--------------------|
D||--------------------|--------------------|
A||----0-3-0-3----3--3-|----0-3-0-3----3--3-|
E||--3-----------------|--3-----------------|

E||----------0---------|----------2---------|
B||----------1---------|----------3---------|
G||--------------------|--------------------|
D||--------------------|--------------------|
A||----0-3-0-3----3--3-|----0-3-0-3----3--3-|
E||--3-----------------|--3-----------------|


             C                    D              
E||----------0---------|----------2---------|
B||----------1---------|----------3---------|
G||--------------------|--------------------|
D||--------------------|--------------------|
A||----0-3-0-3----3--3-|----0-3-0-3---------|
E||--3-----------------|--3-----------------|

             C                    D              
E||----------0---------|----------2---------|
B||----------1---------|----------3---------|
G||--------------------|--------------------|
D||--------------------|--------------------|
A||----0-3-0-3---------|----0-3-0-3---------|
E||--3-----------------|--3-----------------|


guitar intro:
             C                    Gm              
E||----------8---------|----------6---------|
B||--------------------|--------------------|
G||--------------------|--------------------|
D||--------------------|--------------------|
A||--------------------|--------------------|
E||--------------------|--------------------|

             Am                   Fm              
E||----------5---------|--------------------|
B||--------------------|--------------------|
G||--------------------|---------7//8\\7----|
D||--------------------|--------------------|
A||--------------------|--------------------|
E||--------------------|--------------------|


C
   Gotta talk to you, baby
Gm
   Talk to you now
Am
   Say it isn't too late
         Fm
You're slamming the door, you're walking out
C
   I got a feeling
Gm
   Feelings don't lie
Am
   Don't let the words 
D
   Escape me now
Dm
   Escape me now
Fm
   Escape me now
C
   ...


C
   Gotta talk to you, baby
Gm
   Talk to you now
Am
   Say it isn't too late
        Fm
You'll see me again, we'll work it out
C
   I got a feeling
Gm
   Feelings don't lie
Am
   Don't let the words 
D
   Escape me now
Dm
   Escape me now
Fm
   Escape me now
C
   ...


[solo]
Gm     Am     Fm     C
Gm     Am     D     Dm    
Fm     C


C
   Gotta talk to you baby
Gm
   Talk to you now
Am
   Say it isn't too soon
        Fm
You'll see me again, we'll sort it out
C
   I got a feeling
Gm
   Feelings don't lie
Am
   Don't let the words
Fm
   Oh, escape me now
C
   ...
Gm
   Oh, escape me now
Am
   ...
Fm
   Oh, escape me now
C
   ...
Gm
   Oh, I got a feeling
Am
   ...
Fm
   Feelings don't lie
C
   ...
Gm
   ...
Am
   Don't let the words
               Fm
Don't let the words, don't let the words
               C
Oh, escape me now
Gm
   Uh, escape me now
Am
   ...
Fm
   ...

             C                    D
E||----------8---------|----------2---------|
B||--------------------|----------3---------|
G||--------------------|--------------------|
D||--------------------|--------------------|
A||--------------------|----0-3-0-3---------|
E||--------------------|--3-----------------|

             C                    D
E||----------0---------|----------2---------|
B||----------1---------|----------3---------|
G||--------------------|--------------------|
D||--------------------|--------------------|
A||----0-3-0-3---------|----0-3-0-3---------|
E||--3-----------------|--3-----------------|


             C
E||----------0---------|
B||----------1---------|
G||--------------------|
D||--------------------|
A||----0-3-0-3---------|
E||--3-----------------|
Tap to rate this tab
 
# A B C D E F G H I J K L M N O P Q R S T U V W X Y Z